>
 >
Phantoom Of The Opera

Phantoom Of The Opera Bass Tabs

Iron Maiden - Phantoom Of The Opera chords, tabs, tablatures, lyrics

Guitar lessons | Add/correct | Request | Top 50 tabs Artists:  A B C D E F G H I J K L M N O P Q R S T U V W X Y Z 0-9

Phantoom Of The Opera Bass Tabs – Iron Maiden

CD, Sheet music, Poster

Do you like Phantoom Of The Opera? Share with your friends now
Bass Tabs
--0-2--4-5-4-0-0-7-4-0-5-4-0---0-2----------0-4-5-4-0-0-7-4-0-5-4-0---0-2----|
-----------------------------4--------------------------------------4--------|
------------------------------------2-------------------------------------2--|
-----------------------------------------------------------------------------|
Intro

-0-2-4-5-4-0-0-7-4-0-5-4-0---0-2------0-2-4-5-4-0-0-7-4-0-5-4-0---0-2--------|
---------------------------4------------------------------------4------------|
----------------------------------2------------------------------------------|
-----------------------------------------------------------------------------|

------------------------------2-2-2--4-4-4--5--7-9-9--9-9-9--7-9-9--9-9-9----|
---------------2-2-2--4-4-4--------------------------------------------------|
-2-2-2--4-4-4----------------------------------------------------------------|
-----------------------------------------------------------------------------|

-7-9-9--9-9-9---7-9-9--9\----------------------------------------------.--.--|
-----------------------------2-2-2--5-2-2--2-2-2--5-2-2--2-2-2--5-2-2--5--0--|
-----------------------------------------------------------------------------|
-----------------------------------------------------------------------------|

-------------------------------------------.--.------------------------------|
-2-2-2--5-2-2--2-2-2--5-2-2--2-2-2--5-2-2--5--0---2-2-2--5-2-2--2-2-2--5-2-2-|
-----------------------------------------------------------------------------|
-----------------------------------------------------------------------------|

---------------.--.----------------------------------------------------------|
-2-2-2--5-2-2--5--0---4-4-4--7-4-4--4-4-4--7-4-4--5-5-5--9-5-5--5-5-5--9-5-5-|
-----------------------------------------------------------------------------|
-----------------------------------------------------------------------------|

------------------------------------------------------------------------------|
-4-4-4--7-4-4--4-4-4--7-4-4--5-5-5--9-5-5--5-5-5--9-5-5---4-4-4--7-4-4--4-4-4-|
------------------------------------------------------------------------------|
------------------------------------------------------------------------------|

---------------------------------------------------->-->-->-------------------|
-7-4-4--4-4-4--7-4-4--5-5-5--9-5-5--5-5-5--9-5-5----2--2--2---->-->-->--->----|
---------------------------------------------------------------2--2--2---3--3-|
------------------------------------------------------------------------------|

--------------------------------------------------------->-->-->-------------|
-->-----5------2-2-2--5-2-2--2-2-2--5-2-2--2-2-2--5-2-2--0--0--0----2-2-2----|
--3---5----5-----------------------------------------------------------------|
-----------------------------------------------------------------------------|

------------------------------------>-->-->--->-->-->------------------------|
-5-2-2--2-2-2--5-2-2--2-2-2--5-2-2--0--0--0---2--2--2--->-->-->--->-->-->----|
--------------------------------------------------------2--2--2---3--3--3--5-|
-----------------------------------------------------------------------------|

------------------------------------------------->-->-->----------------------|
-5-----2-2-2--5-2-2--2-2-2--5-2-2--2-2-2--5-2-2--0--0--0--2-2-2--5-2-2--2-2-2-|
---5--------------------------------------------------------------------------|
------------------------------------------------------------------------------|

---------------------->-->-->----0-4-5-4-0-0-7-4-0-5-4-0---0-2----------------|
-5-2-2--2-2-2--5-2-2--0--0--0----------------------------4-------2-2-2--5-2-2-|
------------------------------------------------------------------------------|
------------------------------------------------------------------------------|
                              " I've been looking so long... "

------------------------------->-->-->---------------------------------------|
-2-2-2--5-2-2---2-2-2--5-2-2---0--0--0---2-2-2--5-2-2--2-2-2--5-2-2--2-2-2---|
-----------------------------------------------------------------------------|
-----------------------------------------------------------------------------|

-------->-->-->---0-2-4-5-4-0-0-7-4-0-5-4-0---0-2----------------------------|
-5-2-2--0--0--0-----------------------------4-------2-2-2--5-2-2--2-2-2--5-2-|
-----------------------------------------------------------------------------|
-----------------------------------------------------------------------------|

------------------>-->-->--->-->-->-------------------------------------------|
-2--2-2-2--5-2-2--0--0--0---2--2--2--->-->-->--->-->-->-----5------2-2-2--5-2-|
--------------------------------------2--2--2---3--3--3---5---5---------------|
------------------------------------------------------------------------------|

-------------------------------->-->-->--------------------------------------|
-2--2-2-2--5-2-2--2-2-2--5-2-2--0--0--0--2-2-2--5-2-2--2-2-2--5-2-2--2-2-2---|
-----------------------------------------------------------------------------|
-----------------------------------------------------------------------------|

-------->-->-->-->-->-->-----------------------------------------------------|
-5-2-2--0--0--0--2--2--2--->-->-->--->-->-->-----5----2-2-2--5-2-2--2-2-2--5-|
---------------------------2--2--2---3--3--3---5---5-------------------------|
-----------------------------------------------------------------------------|

-------------------->-->-->-------------------------------------------->-->--|
-2-2--2-2-2--5-2-2--0--0--0--2-2-2--5-2-2--2-2-2--5-2-2--2-2-2--5-2-2--0--0--|
-----------------------------------------------------------------------------|
-----------------------------------------------------------------------------|

->---0-2-4-5-4-0-0-7-4-0-5-4-0-----0--2--------------------------------------|
-0------------------------------4---------2-2-2--5-2-2--2-2-2--5-2-2--2-2-2--|
-----------------------------------------------------------------------------|
-----------------------------------------------------------------------------|

-------->-->-->--------------------------------------------->-->-->---0-2-4-5-|
-5-2-2--0--0--0---2-2-2--5-2-2--2-2-2--5-2-2--2-2-2--5-2-2--0--0--0-----------|
------------------------------------------------------------------------------|
------------------------------------------------------------------------------|

-4-0-0-7-4-0-5-4-0----0-2--------------------------------------------->-->----|
--------------------4-------2-2-2--5-2-2--2-2-2--5-2-2--2-2-2--5-2-2--0--0--0-|
------------------------------------------------------------------------------|
------------------------------------------------------------------------------|

-------------------------------------------->-->-->--->-->-->-----------------|
--2-2-2--5-2-2--2-2-2--5-2-2--2-2-2--5-2-2--0--0--0---2--2--2--->-->-->-->----|
----------------------------------------------------------------2--2--2--3--3-|
------------------------------------------------------------------------------|

-------------------------------------------------------->-->-->--------------|
-->-----5-----2-2-2--5-2-2--2-2-2--5-2-2--2-2-2--5-2-2--0--0--0---2-2-2--5-2-|
--3---5---5------------------------------------------------------------------|
-----------------------------------------------------------------------------|

-------------------------------->-->-->-->-->-->-----------------------------|
-2--2-2-2--5-2-2--2-2-2--5-2-2--0--0--0--2--2--2--->-->-->--->-->-->-----5---|
---------------------------------------------------2--2--2---3--3--3---5---5-|
-----------------------------------------------------------------------------|

------------------------------------------->-->-->----------------------------|
-2-2-2--5-2-2--2-2-2--5-2-2--2-2-2--5-2-2--0--0--0---2-2-2--5-2-2--2-2-2--5-2-|
------------------------------------------------------------------------------|
------------------------------------------------------------------------------|

------------------>-->-->--->-->-->------------------------------|
-2--2-2-2--5-2-2--0--0--0---2--2--2--->-->-->--->-->-->-----5----|
--------------------------------------2--2--2---3--3--3---5---5--|
-----------------------------------------------------------------|

------9----------9---------9-------------------9--------9--------9-----------|
--------9----------9---------9--->--->-----------9--------9--------9--->-->--|
--7-7-------7-7-------7-7--------7---5----7-7-------7-7------7-7-------7--9--|
-----------------------------------------------------------------------------|
Intermission

------7--------7----------5--------5--------9--------9---------9-------------|
--------7--------7----------5--------5--------9--------9---------9-->-->-----|
-5-5-------5-5-------3-3-------3-3------7-7------7-7-------7-7------7--5-----|
-----------------------------------------------------------------------------|

------9----------9---------9------------------9--------9--------9------------|
--------9----------9---------9--->-->-----------9--------9--------9--->-->---|
--7-7-------7-7-------7-7--------7--5----7-7-------7-7------7-7-------7--9---|
-----------------------------------------------------------------------------|

------7--------7----------5--------5--------9--------9---------9-------------|
--------7--------7----------5--------5--------9--------9---------9-->-->-----|
-5-5-------5-5-------3-3-------3-3------7-7------7-7-------7-7------7--5-----|
-----------------------------------------------------------------------------|

------9--------9-------9----------------9--------9--------9------------------|
--------9--------9-------9-->-->----------9--------9--------9-->-->-->-------|
-7-7-------7-7------7-7-----7--5----7-7------7-7------7-7------7--5--3---3-3-|
-----------------------------------------------------------------------------|

-----------------------------------------------------------------------------|
----------------------------------------------7-------------------------7----|
--3---2--0--7--7-7-7--7---7-7-7--10--9-7--------10-9-----7--7-7--7---10---10-|
------------------------------------------10---------10----------------------|

-----------------------------------------------------------------------------|
------------------------------------------------------------------------7----|
-9-----3--3-3--3--3--2--0--7--7-7-7--7--7-7--9-10-7--7--9---10-10-10--7---5--|
----10-----------------------------------------------------------------------|

------------------------------------------------------------------------------|
-----------------7--5--------5------------------------------------------------|
-7---7-7-7--10---------7--5-----7--5--0--3---3-3-3-3--2--0---7---7-7-7-7--7-7-|
------------------------------------------------------------------------------|

--------------------9--7-----------------------------------------------------|
--------------------------9--------------------7-5---------------------------|
-7--8---7-7-7--10------------5--7---7-7-7--8--------0--3---3-3-3-3--2--0--7--|
-----------------------------------------------------------------------------|

----------------------------------------9---------|
------------.----------.--.---7-5-5--7------------|
-7-7-7-7--7-7----8--10-9--7----------------5-7~\--|
--------------------------------------------------|


-----14--16-----14--16-----14--16------14--16------14--16------14--16------14-|
--14---------14---------14---------14----------14----------14----------14-----|
------------------------------------------------------------------------------|
------------------------------------------------------------------------------|

-16------14--16-------14--16------14--16-----14--16-----14--16-------12--14--|
-----14-----------14----------14----------14---------14----------12----------|
-----------------------------------------------------------------------------|
-----------------------------------------------------------------------------|

-----12--14------12--14------12--14------10--12-------10--12-----10--12------|
-12----------12----------12-----------10----------10----------10---------10--|
-----------------------------------------------------------------------------|
-----------------------------------------------------------------------------|

--10--12------12--14-------12--14------12--14------12--14--------14--16------|
----------12-----------12----------12----------12------------14----------14--|
-----------------------------------------------------------------------------|
-----------------------------------------------------------------------------|

-14--16-------14---16------14--16-------12--14------12--14-----12--14-----12-|
----------14-----------14-----------12----------12----------12---------12----|
-----------------------------------------------------------------------------|
-----------------------------------------------------------------------------|

-14------10--12-----10--12------10--12------10--12------12--14-----12--14-----|
------10---------10---------10----------10----------12----------12---------12-|
------------------------------------------------------------------------------|
------------------------------------------------------------------------------|

--12--14-------12--14----------------------------16--------------------------|
-----------12------------14--14--14--16--14--14------14--14--16--14--14--12--|
-----------------------------------------------------------------------------|
-----------------------------------------------------------------------------|

----------------------14----------------------------------------------12-----|
-12--12--14--12--12-------12--12--14--12--12---10--10--10--12--10--10----10--|
-----------------------------------------------------------------------------|
-----------------------------------------------------------------------------|

------------------------------------------14----------12---------------------|
-10--12--10--10---12--12--12--14--12--12------12--12------12--12--14--14--14-|
-----------------------------------------------------------------------------|
-----------------------------------------------------------------------------|

-------------16--------------------------------------------14----------------|
-16--14--14------14--14--16--14-14--12--12--12--14--12--12----12--12--14--12-|
-----------------------------------------------------------------------------|
-----------------------------------------------------------------------------|

-----------------------------12------------------------------14-14-14--12-12-|
-12--10--10--10--12--10--10-----10--10--12--10--10--12-12-12-----------------|
-----------------------------------------------------------------------------|
-----------------------------------------------------------------------------|

-11-----|---------------------------------------------------------------------|
----12\-|.--------------------------------------------------------------------|
--------|.-7-7-7--7-7-7--7-7-7--7-7-7--10-10-10--10-10-10--10-10-10--10-10-10-|
--------|---------------------------------------------------------------------|

----------------------------------------------------------------------------|
-----------------------------------------------------------------------.---.|
-12-12-12--12-12-12--12-12-12--12-12-12--15-15-15--15-15-15--14-14-14-10---.|
----------------------------------------------------------------------------|

|-----------------------------------------------------------------------------|
|.----------------------------------------------------------------------------|
|.--7-7-7--7-7-7--7-7-7--7-7-7--10-10-10--10-10-10--10-10-10--10-10-10--12-12-|
|-----------------------------------------------------------------------------|

                                   ---------------------------     ---------
                                  | 1.                            | 2.
--------------------------------------------------9-7-0----------|-----------|
------------------------------------9-7-0--9-7-0---------9-7-0--.|--9-7-0----|
-12--12-12-12--12-12-12--12-12-12-------------------------------.|-----------|
-----------------------------------------------------------------|-----------|

---------------9-7-0----------------------------------------------------------|
-9-7-0--9-7-0-----------------------------------------------------------------|
------------------------7-7-7--7-7-7--7-7-7--7-7-7--10-10-10--10-10-10--10-10-|
------------------------------------------------------------------------------|

-----------------------------------------------------------------------------|
-----------------------------------------------------------------------------|
-10--10-10-10--12-12-12--12-12-12--12-12-12--12-12-12--15-15-15--15-15-15----|
-----------------------------------------------------------------------------|

-----------------------------------------------------------------------------|
------------.----------------------------------------------------------------|
--14-14-14--10---7-7-7--7-7-7--7-7-7--7-7-7--10-10-10--10-10-10--10-10-10----|
-----------------------------------------------------------------------------|

-----------------------------------------------------------------------------|
-----------------------------------------------------------------------------|
-10-10-10--12-12-12--12-12-12--12-12-12--12-12-12--15-15-15--15-15-15--14-14-|
-----------------------------------------------------------------------------|

--------------|-------.------>------>-----------------.------>------>--------|
------.-------|.------2--2-2-2--2-2-2--2-2-2-0---0----2--2-2-2--2-2-2--2-2-2-|
-14--10--15\--|.-------------------------------2-----------------------------|
--------------|--------------------------------------------------------------|
       ritard.    Free time  (Guitar Solos)

---------.------>------>---------------.-------.--->-----------------|-------|
-0---0---5--5-5-5--5-5-5--5-5-5-3---3--7---7-7-7---7----------------.|-2-2-2-|
---2------------------------------5--------------------3--3---5--5--.|-------|
---------------------------------------------------------------------|-------|
                                                       Play 12 Times

-----------------------|------------------------------------------->-->-->---|
------------------5----|-2-2-2--5-2-2--2-2-2--5-2-2--2-2-2--5-2-2--0--0--0---|
--2-2-2--3-3-3--5---5--|-----------------------------------------------------|
-----------------------|-----------------------------------------------------|
                        Faster

------------------------------------------->-->-->----------------------------|
-2-2-2--5-2-2--2-2-2--5-2-2--2-2-2--5-2-2--0--0--0---2-2-2------------------5-|
------------------------------------------------------------2-2-2--3-3-3--5---|
------------------------------------------------------------------------------|

---------------------------------------------->-->-->------------------------|
----2-2-2--5-2-2--2-2-2--5-2-2--2-2-2--5-2-2--0--0--0---2-2-2--5-2-2--2-2-2--|
-5---------------------------------------------------------------------------|
-----------------------------------------------------------------------------|

---------------------->-->-->---0-2-4-5-4-0-0-7-4-0-5-4-0-----0-2------------|
-5-2-2--2-2-2--5-2-2--0--0--0------------------------------4---------2-2-2---|
-----------------------------------------------------------------------------|
-----------------------------------------------------------------------------|

------------------------------------->-->-->----------------------------------|
--5-2-2--2-2-2--5-2-2--2-2-2--5-2-2--0--0--0--2-2-2--5-2-2--2-2-2--5-2-2--2-2-|
------------------------------------------------------------------------------|
------------------------------------------------------------------------------|

----------->-->-->--0-2-4-5-4-0-0-7-4-0-5-4-0---0-2--------------------------|
-2--5-2-2--0--0--0----------------------------4-------2-2-2--5-2-2--2-2-2--5-|
-----------------------------------------------------------------------------|
-----------------------------------------------------------------------------|

-------------------->-->-->-------------------------------------------->-->--|
-2-2--2-2-2--5-2-2--0--0--0--2-2-2--5-2-2--2-2-2--5-2-2--2-2-2--5-2-2--0--0--|
-----------------------------------------------------------------------------|
-----------------------------------------------------------------------------|

->------------------------------------------------------------------------>--|
-0--2-2-2------------------5----2-2-2--5-2-2--2-2-2--5-2-2--2-2-2--5-2-2--0--|
-----------2-2-2--3-3-3--5---5-----------------------------------------------|
-----------------------------------------------------------------------------|

->-->-------------------------------------------->-->-->---------------------|
-0--0--2-2-2--5-2-2--2-2-2--5-2-2--2-2-2--5-2-2--0--0--0---2-2-2-------------|
------------------------------------------------------------------2-2-2--3-3-|
-----------------------------------------------------------------------------|

---------------||
------5--->----||
-3--5---5-7\---||
---------------||





Comments


Popular Iron Maiden tabs & chords
Fear Is The Key Bass Tabs
Murders In The Rue Morgue 1 Bass Tabs
Journeyman 1 Chords
Brave New World 2 Tabs
Dreams Of Mirrors Tabs
Rime Of The Ancient Mariner 1 Tabs
Strange World 4 Tabs
The Trooper Tabs
The Unbeliever Tabs
The Unbeliever 1 Tabs


Song lyrics



↑ Back to top | Tablatures and chords are parodies/interpretations of the original songs. You may use it for private study, scholarship, research or language learning purposes only
© 2014 AZChords.com Contact us | Privacy policy | DMCA | Add/correct tabs | Request tabs | Top 50 tabs