>
 >
Phantom Of The Opera Live

Phantom Of The Opera Live Guitar Tabs

Iron Maiden - Phantom Of The Opera Live chords, tabs, tablatures, lyrics

Guitar lessons | Add/correct | Request | Top 50 tabs Artists:  A B C D E F G H I J K L M N O P Q R S T U V W X Y Z 0-9

Phantom Of The Opera Live Guitar Tabs – Iron Maiden

CD, Sheet music, Poster

Do you like Phantom Of The Opera Live? Share with your friends now
Bass TabsTabs

PHANTOM OF THE OPERA (LIVE)
As recorded by Iron Maiden
(From the 1980 Album IRON MAIDEN)


Music by Steve Harris

Gtr I (E A D G B E) - 'Guitar 1'
Gtr II (E A D G B E) - 'Guitar 2'

 Intro
  Q=170
 4/4
  Gtrs I, II
          |-3-|     |-3-| |-3-| |-3-|   |-3-| |-3-|
  H    Q  E E E     E E E E E E Q Q Q   Q Q Q Q Q Q
|---------------||--------------------|-------------|
|---------------||o-------------------|-------------|
|---------------||--4-4-4-5-4---7-4---|-5-4---------|
|-----------4h5-||------------5-----5-|-----5-4-5-7-|
|---------------||o-------------------|-------------|
|---------------||--------------------|-------------|


          |-3-|     |-3-| |-3-| |-3-|   |-3-| |-3-|
  H.      E E E     E E E E E E Q Q Q   Q Q Q Q Q Q
|----------------||-------------------|----------------|
|---------------o||-------------------|----------------|
|----------------||-4-4-4-5-4---7-4---|-5-4------------|
|-----------4h5--||-----------5-----5-|-----5-4-5-7----|
|-2-------------o||-------------------|----------------|
|----------------||-------------------|----------------|


  Gtr I
  |-3-| |-3-| |-3-| |-3-|   |-3-| |-3-|  |--3--|  |--3--|
  E E E E E E E E E E E E   E E E E E E  E  E  E  E  E  E
|-------------------0-0-0-|-3-3-3-5-5-5--7--7--7-10-10-10-|
|-0-0-0-1-1-1-3-3-3-------|-------------------------------|
|-------------------------|-------------------------------|
|-------------------------|-------------------------------|
|-------------------------|-------------------------------|
|-------------------------|-------------------------------|
|
| Gtr II
| |-3-| |-3-| |-3-| |-3-|   |-3-| |-3-|  |--3--|  |--3--|
| E E E E E E E E E E E E   E E E E E E  E  E  E  E  E  E
|-------0-0-0-2-2-2-3-3-3-|-7-7-7-8-8-8-10-10-10-14-14-14-|
|-3-3-3-------------------|-------------------------------|
|-------------------------|-------------------------------|
|-------------------------|-------------------------------|
|-------------------------|-------------------------------|
|-------------------------|-------------------------------|


   |--3--|  |--3--|  |--3--|  |--3--|    |--3--|  |--3--|  |--3--|
   E  E  E  E  E  E  E  E  E  E  E  E    E  E  E  E  E  E  E  E  E  Q
|-15p12----15p12----15p12----15p12----|-15p12----15p12----15p12----15--|
|-------12-------12-------12-------12-|-------12-------12-------12-----|
|-------------------------------------|--------------------------------|
|-------------------------------------|--------------------------------|
|-------------------------------------|--------------------------------|
|-------------------------------------|--------------------------------|
|
|  |--3--|  |--3--|  |--3--|  |--3--|    |--3--|  |--3--|  |--3--|
|  E  E  E  E  E  E  E  E  E  E  E  E    E  E  E  E  E  E  E  E  E  Q
|-19p15----19p15----19p15----19p15----|-19p15----19p15----19p15----19--|
|-------17-------17-------17-------17-|-------17-------17-------17-----|
|-------------------------------------|--------------------------------|
|-------------------------------------|--------------------------------|
|-------------------------------------|--------------------------------|
|-------------------------------------|--------------------------------|


   Verse
                                             G5  D5
    |-3-|  |-3-| |-3-|  |-3-|   |-3-|  |-3-|
    E E E  E E E E E E  E E E   E E E  E E E  Q  Q  4x
||----------------------------|---------------------||
||o---------------------------|--------------------o||
||----------------------------|--------------12--7--||
||----------------------------|--------------12--7--||
||o-7-7-7-10-7-7-7-7-7-10-7-7-|-7-7-7-10-7-7-10--5-o||
||----------------------------|---------------------||


    |-3-|  |-3-| |-3-|  |-3-|    |--3--|  |--3--|  |--3--|  |--3--|
    E E E  E E E E E E  E E E    E  E  E  E  E  E  E  E  E  E  E  E  3x
||----------------------------|--------------------------------------||
||o---------------------------|-------------------------------------o||
||----------------------------|--------------------------------------||
||----------------------------|--------------------------------------||
||o-9-9-9-12-9-9-9-9-9-12-9-9-|-10-10-10-13-10-10-10-10-10-13-10-10-o||
||----------------------------|--------------------------------------||


  E5    B5      C5      D5
  |-3-| |-3-|    |-3--| |-3-|
  Q Q Q Q Q Q    Q  Q Q Q Q Q
|-------------|---------------|
|-------------|---------------|
|-9-9---------|---------7-7-7-|
|-9-9---9-9---|-10-10---7-7-7-|
|-7-7---9-9---|-10-10---5-5-5-|
|-------7-7---|--8--8---------|


                                             G5  D5
    |-3-|  |-3-| |-3-|  |-3-|   |-3-|  |-3-|
    E E E  E E E E E E  E E E   E E E  E E E  Q  Q
||----------------------------|---------------------||
||o---------------------------|--------------------o||
||----------------------------|--------------12--7--||
||----------------------------|--------------12--7--||
||o-7-7-7-10-7-7-7-7-7-10-7-7-|-7-7-7-10-7-7-10--5-o||
||----------------------------|---------------------||


  E5       B5         C5         D5
  |--3--|  |--3--|     |--3---|  |--3--|
  Q  Q  Q  Q  Q  Q     Q   Q  Q  Q  Q  Q
|-------------------|---------------------|
|-------------------|---------------------|
|-9--9--------------|------------7--7--7--|
|-9--9-----9--9-----|-10--10-----7--7--7--|
|-7--7-----9--9-----|-10--10-----5--5--5--|
|----------7--7-----|--8---8--------------|


                                             D5
    |-3-|  |-3-| |-3-|  |-3-|   |-3-|  |-3-| |-3-|
    E E E  E E E E E E  E E E   E E E  E E E Q Q Q
||----------------------------|----------------------|
||o---------------------------|----------------------|
||----------------------------|--------------7-7-7---|
||----------------------------|--------------7-7-7---|
||o-7-7-7-10-7-7-7-7-7-10-7-7-|-7-7-7-10-7-7-5-5-5---|
||----------------------------|----------------------|


                                           D5
  |-3-|  |-3-| |-3-|  |-3-|   |-3-|  |-3-| |-3-| |-3-|
  E E E  E E E E E E  E E E   E E E  E E E E E E E E E
|---------------------------|--------------------------|
|---------------------------|--------------------------|
|---------------------------|--------------7---7-------|
|---------------------------|--------------7---7---4h5-|
|-7-7-7-10-7-7-7-7-7-10-7-7-|-7-7-7-10-7-7-5---5-------|
|---------------------------|--------------------------|


  |-3-| |-3-| |-3-|   |-3-| |-3-|
  E E E E E E Q Q Q   Q Q Q Q Q Q
|-------------------|----------------||
|-------------------|---------------o||
|-4-4-4-5-4---7-4---|-5-4------------||
|-----------5-----5-|-----5-4-5-7----||
|-------------------|---------------o||
|-------------------|----------------||


    |-3-|  |-3-| |-3-|  |-3-|
    E E E  E E E E E E  E E E
||----------------------------|
||o---------------------------|
||----------------------------|
||----------------------------|
||o-7-7-7-10-7-7-7-7-7-10-7-7-|
||----------------------------|


               D5        E5    B5      C5      D5
  |-3-|  |-3-| |-3-|     |-3-| |-3-|    |-3--| |-3-|
  E E E  E E E Q Q Q     Q Q Q Q Q Q    Q  Q Q Q Q Q
|---------------------||-------------|---------------|
|--------------------o||-------------|---------------|
|--------------7-7-7--||-9-9---------|---------7-7-7-|
|--------------7-7-7--||-9-9---9-9---|-10-10---7-7-7-|
|-7-7-7-10-7-7-5-5-5-o||-7-7---9-9---|-10-10---5-5-5-|
|---------------------||-------7-7---|--8--8---------|


    |-3-|  |-3-| |-3-|  |-3-|
    E E E  E E E E E E  E E E
||----------------------------|
||o---------------------------|
||----------------------------|
||----------------------------|
||o-7-7-7-10-7-7-7-7-7-10-7-7-|
||----------------------------|


               D5        E5    B5      C5      G5
  |-3-|  |-3-| |-3-|     |-3-| |-3-|    |-3--| |-3-|
  E E E  E E E Q Q Q     Q Q Q Q Q Q    Q  Q Q Q Q Q
|---------------------||-------------|---------------|
|--------------------o||-------------|---------------|
|--------------7-7-7--||-9-9---------|---------7-7-7-|
|--------------7-7-7--||-9-9---9-9---|-10-10---7-7-7-|
|-7-7-7-10-7-7-5-5-5-o||-7-7---9-9---|-10-10---5-5-5-|
|---------------------||-------7-7---|--8--8---------|


                                             D5
    |-3-|  |-3-| |-3-|  |-3-|   |-3-|  |-3-| |-3-|
    E E E  E E E E E E  E E E   E E E  E E E Q Q Q
||----------------------------|--------------------|
||o---------------------------|--------------------|
||----------------------------|--------------7-7-7-|
||----------------------------|--------------7-7-7-|
||o-7-7-7-10-7-7-7-7-7-10-7-7-|-7-7-7-10-7-7-5-5-5-|
||----------------------------|--------------------|


                                           D5
  |-3-|  |-3-| |-3-|  |-3-|   |-3-|  |-3-| |-3-| |-3-|
  E E E  E E E E E E  E E E   E E E  E E E E E E E E E
|---------------------------|---------------------------|
|---------------------------|---------------------------|
|---------------------------|--------------7---7--------|
|---------------------------|--------------7---7---4h5--|
|-7-7-7-10-7-7-7-7-7-10-7-7-|-7-7-7-10-7-7-5---5--------|
|---------------------------|---------------------------|


  |-3-| |-3-| |-3-|   |-3-| |-3-|
  E E E E E E Q Q Q   Q Q Q Q Q Q
|-------------------|--------------||
|-------------------|-------------o||
|-4-4-4-5-4---7-4---|-5-4----------||
|-----------5-----5-|-----5-4-5-7--||
|-------------------|-------------o||
|-------------------|--------------||


                                             D5
    |-3-|  |-3-| |-3-|  |-3-|   |-3-|  |-3-| |-3-|
    E E E  E E E E E E  E E E   E E E  E E E Q Q Q
||----------------------------|--------------------|
||o---------------------------|--------------------|
||----------------------------|--------------7-7-7-|
||----------------------------|--------------7-7-7-|
||o-7-7-7-10-7-7-7-7-7-10-7-7-|-7-7-7-10-7-7-5-5-5-|
||----------------------------|--------------------|


                                           D5
  |-3-|  |-3-| |-3-|  |-3-|   |-3-|  |-3-| |-3-| |-3-|
  E E E  E E E E E E  E E E   E E E  E E E E E E E E E
|---------------------------|---------------------------|
|---------------------------|---------------------------|
|---------------------------|--------------7---7--------|
|---------------------------|--------------7---7---4h5--|
|-7-7-7-10-7-7-7-7-7-10-7-7-|-7-7-7-10-7-7-5---5--------|
|---------------------------|---------------------------|


  |-3-| |-3-| |-3-|   |-3-| |-3-|
  E E E E E E Q Q Q   Q Q Q Q Q Q
|-------------------|--------------||
|-------------------|-------------o||
|-4-4-4-5-4---7-4---|-5-4----------||
|-----------5-----5-|-----5-4-5-7--||
|-------------------|-------------o||
|-------------------|--------------||


                                           D5
  |-3-|  |-3-| |-3-|  |-3-|   |-3-|  |-3-| |-3-|
  E E E  E E E E E E  E E E   E E E  E E E Q Q Q
|---------------------------|--------------------|
|---------------------------|--------------------|
|---------------------------|--------------7-7-7-|
|---------------------------|--------------7-7-7-|
|-7-7-7-10-7-7-7-7-7-10-7-7-|-7-7-7-10-7-7-5-5-5-|
|---------------------------|--------------------|


                                           D5
  |-3-|  |-3-| |-3-|  |-3-|   |-3-|  |-3-| |-3-|
  E E E  E E E E E E  E E E   E E E  E E E Q Q Q
|---------------------------|----------------------|
|---------------------------|----------------------|
|---------------------------|--------------7-7-----|
|---------------------------|--------------7-7-----|
|-7-7-7-10-7-7-7-7-7-10-7-7-|-7-7-7-10-7-7-5-5-----|
|---------------------------|----------------------|


                                  Chorus
  E5    B5      C5       D5        E5
                                   PM----------------|
  |-3-| |-3-|    |--3--| |-3-------------------------|
  Q Q Q Q Q Q    Q  Q  Q Q Q Q     E E E E E E E E
|-------------|----------------||------------------|
|-------------|----------------||o-----------------|
|-9-9---------|----------7-7-7-||------9-------9---|
|-9-9---9-9---|-10-10-10-7-7-7-||----9---9---9---9-|
|-7-7---9-9---|-10-10-10-5-5-5-||o-7-------7-------|
|-------7-7---|--8--8--8-------||------------------|


             D5     D5
 -------|           PM------------|
  E E E E Q  Q      E E E E E E E E
|----------------||------------------|
|---------------o||------------------|
|-----9---9--7---||-----7-------7----|
|---9---9-9--7---||---7---7---7---7--|
|-7-------7--5--o||-5-------5--------|
|----------------||------------------|


  C5                E5
  PM---------------------------------
  E E E E E E E E   E E E E E E E E
|-----------------|-----------------|
|-----------------|-----------------|
|-----5-------5---|-----9-------9---|
|---5---5---5---5-|---9---9---9---9-|
|-3-------3-------|-7-------7-------|
|-----------------|-----------------|


             D5     E5                           D5
 -------|           PM----------------------|
  E E E E Q  Q      E E E E E E E E   E E E E Q  Q
|---------------||------------------|---------------|
|---------------||o-----------------|---------------|
|-----9---9--7--||------9-------9---|-----9---9--7--|
|---9---9-9--7--||----9---9---9---9-|---9---9-9--7--|
|-7-------7--5--||o-7-------7-------|-7-------7--5--|
|---------------||------------------|---------------|


  E5                           D5                     C5
  PM----------------------|         PM------------------------------|
  E E E E E E E E   E E E E Q  Q    E E E E E E E E   E E E E E E E E
|-----------------|---------------|-----------------|-----------------|
|-----------------|---------------|-----------------|-----------------|
|-----9-------9---|-----9---9--7--|-----7-------7---|-----5-------5---|
|---9---9---9---9-|---9---9-9--7--|---7---7---7---7-|---5---5---5---5-|
|-7-------7-------|-7-------7--5--|-5-------5-------|-3-------3-------|
|-----------------|---------------|-----------------|-----------------|


  E5                           D5   E5                           D5
  PM----------------------|         PM----------------------|
  E E E E E E E E   E E E E Q  Q    E E E E E E E E   E E E E Q  Q
|-----------------|---------------|-----------------|----------------||
|-----------------|---------------|-----------------|---------------o||
|-----9-------9---|-----9---9--7--|-----9-------9---|-----9---9--7---||
|---9---9---9---9-|---9---9-9--7--|---9---9---9---9-|---9---9-9--7---||
|-7-------7-------|-7-------7--5--|-7-------7-------|-7-------7--5--o||
|-----------------|---------------|-----------------|----------------||


                                    Guitar Solo
  E5                           D5    C5
                                    6/8
  Gtr I
  PM----------------------|
  E E E E E E E E   E E E E Q  Q      H.           +H            Q
|-----------------|---------------||------------|---------------------|
|-----------------|---------------||------------|---------------------|
|-----9-------9---|-----9---9--7--||--5---------|--(5)----------------|
|---9---9---9---9-|---9---9-9--7--||--5---------|--(5)----------------|
|-7-------7-------|-7-------7--5--||--3---------|--(3)----------------|
|-----------------|---------------||------------|---------------------|
|
| Gtr II
| PM----------------------|
| E E E E E E E E   E E E E Q  Q      H.           +E   E  H
|-----------------|---------------||------------|------12-------------|
|-----------------|---------------||------------|------12-15b17-------|
|-----9-------9---|-----9---9--7--||-14b16------|-(14)----------------|
|---9---9---9---9-|---9---9-9--7--||------------|---------------------|
|-7-------7-------|-7-------7--5--||------------|---------------------|
|-----------------|---------------||------------|---------------------|


    Q.     E  E E    Q        Q     Q     Q   Q        Q
|----------7------|--7-----------------|------5-----------|
|-------------8---|-----------8--------|---------------6--|
|---------------9-|-----------------9--|--5---------------|
|-----------------|--------------------|------------------|
|-----------------|--------------------|------------------|
|---0-------------|--------------------|------------------|
|
|                    |--3--|                  |--3--|
|  +Q    Q    Q      E  E  E  H           Q   E  E  E  Q
|-----------------|--------------------|-13--12h13p12-----|
|-(15)--15--------|--------------------|--------------15--|
|------------14---|-16p14p12-12b14-----|------------------|
|-----------------|--------------------|------------------|
|-----------------|--------------------|------------------|
|-----------------|--------------------|------------------|


   Q   Q        Q          Q.     E E E
|------7----------------|---------7------|
|---------------8-------|-----------8----|
|--7--------------------|--9----------9--|
|-----------------------|----------------|
|-----------------------|----------------|
|-----------------------|----------------|
|
|      |--3--|  |--3--|
|  Q   E  E  E  E  E  E    H.
|-15--13h15p13-12h13p12-|----------------|
|-----------------------|-15b17----------|
|-----------------------|----------------|
|-----------------------|----------------|
|-----------------------|----------------|
|-----------------------|----------------|


    Q    Q     Q         Q.       E E E
|---7----------------|------------8-----|
|--------8-----------|---5----------8---|
|--------9-----------|---5------------9-|
|--------------------|------------------|
|--------------------|------------------|
|--------------------|------------------|
|
|  +Q    E  E  Q        +E   E  H
|-------------12b14--|-(12)-13-12-------|
|-(15)--12-15--------|------------------|
|--------------------|------------------|
|--------------------|------------------|
|--------------------|------------------|
|--------------------|------------------|


    Q    Q      Q        Q   E  E  E E    Q  Q   Q
|---8-----------------|------7-------7-|-------------|
|--------8------------|---------8------|--8----------|
|---------------9-----|--9---------9---|-----9---9---|
|---------------------|----------------|-------------|
|---------------------|----------------|-------------|
|---------------------|----------------|-------------|
|
|  +Q    Q      Q        Q.     E  Q      H      Q
|-(12)--12b13--12b13--|-12--------12---|--------12---|
|---------------------|--------15------|-12----------|
|---------------------|----------------|-------------|
|---------------------|----------------|-------------|
|---------------------|----------------|-------------|
|---------------------|----------------|-------------|


   Q   Q        Q     Q   Q        Q
|------5-----------|------7----------------|
|---------------6--|---------------8-------|
|--5---------------|--7--------------------|
|------------------|-----------------------|
|------------------|-----------------------|
|------------------|-----------------------|
|
|      |--3--|            |--3--|  |--3--|
|  Q   E  E  E  Q     Q   E  E  E  E  E  E
|-13--12h13p12-----|-15--13h15p13-12h13p12-|
|--------------15--|-----------------------|
|------------------|-----------------------|
|------------------|-----------------------|
|------------------|-----------------------|
|------------------|-----------------------|


   Q.     E E E    Q     Q     Q     Q.   E E E
|---------7-----|--7--------------|-------8-------|
|-----------8---|--------8--------|--5------8-----|
|--9----------9-|--------------9--|--5--------9---|
|---------------|-----------------|---------------|
|---------------|-----------------|---------------|
|---------------|-----------------|---------------|
|
|  H.              E  E  E  E  Q     H.
|---------------|-12-13-15-17-17--|-19------------|
|-15b17---------|-----------------|---------------|
|---------------|-----------------|---------------|
|---------------|-----------------|---------------|
|---------------|-----------------|---------------|
|---------------|-----------------|---------------|


   Q           Q        Q       Q.                E  E  E
|--8-------------------------|--------------------7-------|
|--------------8-------------|-----------------------8----|
|-----------------------9----|--9-----------------------9-|
|----------------------------|----------------------------|
|----------------------------|----------------------------|
|----------------------------|----------------------------|
|
|  S  S  S  S  S  S  E  E  E    S  S  S  S  S  S  E  E  E
|-17h19p17h19p17h19p17s13-17-|-13h17p13h17p13h17p13s12-15-|
|----------------------------|----------------------------|
|----------------------------|----------------------------|
|----------------------------|----------------------------|
|----------------------------|----------------------------|
|----------------------------|----------------------------|


   Q        Q  Q     Q   Q        Q
|--7--------------|------5-----------|
|-----------8-----|---------------6--|
|-----------9-----|--5---------------|
|-----------------|------------------|
|-----------------|------------------|
|-----------------|------------------|
|
|  |--3--|               |--3--|
|  E  E  E  H        Q   E  E  E  Q
|-12p10h12-12-----|-13--12h13p12-10--|
|-----------------|------------------|
|-----------------|------------------|
|-----------------|------------------|
|-----------------|------------------|
|-----------------|------------------|


   Q   Q         Q           Q.     E E E
|------7------------------|---------7-----|
|----------------8--------|-----------8---|
|--7----------------------|--9----------9-|
|-------------------------|---------------|
|-------------------------|---------------|
|-------------------------|---------------|
|
|      |--3---|  |--3---|
|  Q   E  E   E  E  E   E    H.
|-15--13h15p=13-12h13p=12-|---------------|
|-------------------------|-15b17---------|
|-------------------------|---------------|
|-------------------------|---------------|
|-------------------------|---------------|
|-------------------------|---------------|


    Q      Q     Q       Q   Q     Q       Q   Q     Q
|---7-----------------|------8----------|------8-----------|
|----------8----------|--5---------8----|------------8-----|
|----------9----------|--5--------------|--9---------------|
|---------------------|-----------------|------------------|
|---------------------|-----------------|------------------|
|---------------------|-----------------|------------------|
|
|  +E   E  E  E  E  E    Q.     E  E  E    Q.     E  E  E
|---------------------|-----------------|------------------|
|-(15)-15-------12-12-|-----------------|------------------|
|---------12-14-------|-14-----12-14p12-|------------------|
|---------------------|-----------------|-15-----15-17p15--|
|---------------------|-----------------|------------------|
|---------------------|-----------------|------------------|


   Q           E  E  E  E    Q     Q   Q
|--------------7--------7-|-----------------|
|-----------------8-------|--8--------------|
|--9-----------------9----|--------9---9----|
|-------------------------|-----------------|
|-------------------------|-----------------|
|-------------------------|-----------------|
|
|  S  S  S  S  E  E  E  E    H         E  E
|-------------------------|--------------12-|
|-------------------------|-----------12----|
|-------------------------|-----------------|
|-14h15p14h15p14s12h14p12-|-12b14-----------|
|-------------------------|-----------------|
|-------------------------|-----------------|


       |--3---|            |--3---|  |--3---|
   Q   E  E   E  Q     Q   E  E   E  E  E   E
|-------------------|-------------------------|
|--6---5h=6p==5--3--|--8---6--8---6--5--6---5-|
|-------------------|-------------------------|
|-------------------|-------------------------|
|-------------------|-------------------------|
|-------------------|-------------------------|
|
|      |--3---|            |--3---|  |--3---|
|  Q   E  E   E  Q     Q   E  E   E  E  E   E
|-13--12h13p=12-----|-15--13h15p=13-12h13p=12-|
|---------------15--|-------------------------|
|-------------------|-------------------------|
|-------------------|-------------------------|
|-------------------|-------------------------|
|-------------------|-------------------------|


                            4/4
   H.           +Q   H       W          W
|------------|-------------|----------|------||
|--3b5-------|--(3)--------|----------|------||
|------------|-------------|----------|------||
|------------|-------------|----------|------||
|------------|-------------|----------|------||
|------------|-------------|----------|------||
|
|  H.           +H      Q    W          W
|------------|-------------|----------|------||
|-15b17------|-(15)--------|----------|------||
|------------|-------------|----------|------||
|------------|-------------|----------|------||
|------------|-------------|----------|------||
|------------|-------------|----------|------||


   Interlude
     |--3--|  |--3--|  |--3--|  |--3--|    |--3--|  |--3--|  |--3--|  |--3--|
     E  E  E  E  E  E  E  E  E  E  E  E    E  E  E  E  E  E  E  E  E  E  E  E
||--19p15----19p15----19p15----19p15----|-17p14----17p14----17p14----17p14----|
||o-------17-------17-------17-------17-|-------15-------15-------15-------15-|
||--------------------------------------|-------------------------------------|
||--------------------------------------|-------------------------------------|
||o-------------------------------------|-------------------------------------|
||--------------------------------------|-------------------------------------|
|
|    |--3--|  |--3--|  |--3--|  |--3--|    |--3--|  |--3--|  |--3--|  |--3--|
|    E  E  E  E  E  E  E  E  E  E  E  E    E  E  E  E  E  E  E  E  E  E  E  E
||--15p12----15p12----15p12----15p12----|-14p10----14p10----14p10----14p10----|
||o-------12-------12-------12-------12-|-------10-------10-------10-------10-|
||--------------------------------------|-------------------------------------|
||--------------------------------------|-------------------------------------|
||o-------------------------------------|-------------------------------------|
||--------------------------------------|-------------------------------------|


                                        1.,2.,3.
   |--3--|  |--3--|  |--3--|  |--3--|    |--3--|  |--3--|  |--3--|  |--3--|
   E  E  E  E  E  E  E  E  E  E  E  E    E  E  E  E  E  E  E  E  E  E  E  E
|-15p12----15p12----15p12----15p12----|-17p14----17p14----17p14----17p14-----||
|-------13-------13-------13-------13-|-------15-------15-------15-------15-o||
|-------------------------------------|--------------------------------------||
|-------------------------------------|--------------------------------------||
|-------------------------------------|-------------------------------------o||
|-------------------------------------|--------------------------------------||
|
|  |--3--|  |--3--|  |--3--|  |--3--|    |--3--|  |--3--|  |--3--|  |--3--|
|  E  E  E  E  E  E  E  E  E  E  E  E    E  E  E  E  E  E  E  E  E  E  E  E
|-12p=8----12p=8----12p=8----12p=8----|-14p10----14p10----14p10----14p10-----||
|--------8--------8--------8--------8-|-------10-------10-------10-------10-o||
|-------------------------------------|--------------------------------------||
|-------------------------------------|--------------------------------------||
|-------------------------------------|-------------------------------------o||
|-------------------------------------|--------------------------------------||


  4.
   |--3--|  |--3--|  |--3--|  |--3--|
   E  E  E  E  E  E  E  E  E  E  E  E
|-12-12-12-12-12-12-14-14-14-14-14-14--|
|-13-13-13-13-13-13-15-15-15-15-15-15--|
|--------------------------------------|
|--------------------------------------|
|--------------------------------------|
|--------------------------------------|
|
|  |--3--|  |--3--|  |--3--|  |--3--|
|  E  E  E  E  E  E  E  E  E  E  E  E
|-12-12-12-12-12-12-14-14-14-14-14-14--|
|--------------------------------------|
|--------------------------------------|
|--------------------------------------|
|--------------------------------------|
|--------------------------------------|


     |--3--|  |--3--|  |--3--|  |--3--|    |--3--|  |--3--|  |--3--|  |--3--|
     E  E  E  E  E  E  E  E  E  E  E  E    E  E  E  E  E  E  E  E  E  E  E  E
||--19p15----19p15----19p15----19p15----|-17p14----17p14----17p14----17p14----|
||o-------17-------17-------17-------17-|-------15-------15-------15-------15-|
||--------------------------------------|-------------------------------------|
||--------------------------------------|-------------------------------------|
||o-------------------------------------|-------------------------------------|
||--------------------------------------|-------------------------------------|
|
|    |--3--|  |--3--|  |--3--|  |--3--|    |--3--|  |--3--|  |--3--|  |--3--|
|    E  E  E  E  E  E  E  E  E  E  E  E    E  E  E  E  E  E  E  E  E  E  E  E
||--15p12----15p12----15p12----15p12----|-14p10----14p10----14p10----14p10----|
||o-------12-------12-------12-------12-|-------10-------10-------10-------10-|
||--------------------------------------|-------------------------------------|
||--------------------------------------|-------------------------------------|
||o-------------------------------------|-------------------------------------|
||--------------------------------------|-------------------------------------|


                                        1.,2.
   |--3--|  |--3--|  |--3--|  |--3--|    |--3--|  |--3--|  |--3--|  |--3--|
   E  E  E  E  E  E  E  E  E  E  E  E    E  E  E  E  E  E  E  E  E  E  E  E
|-15p12----15p12----15p12----15p12----|-12-12-12-12-12-12-14-14-14-14-14-14----||
|-------13-------13-------13-------13-|-13-13-13-13-13-13-15-15-15-15-15-15---o||
|-------------------------------------|----------------------------------------||
|-------------------------------------|----------------------------------------||
|-------------------------------------|---------------------------------------o||
|-------------------------------------|----------------------------------------||
|
|  |--3--|  |--3--|  |--3--|  |--3--|    |--3--|  |--3--|  |--3--|  |--3--|
|  E  E  E  E  E  E  E  E  E  E  E  E    E  E  E  E  E  E  E  E  E  E  E  E
|-12p=8----12p=8----12p=8----12p=8----|-12-12-12-12-12-12-14-14-14-14-14-14----||
|--------8--------8--------8--------8-|---------------------------------------o||
|-------------------------------------|----------------------------------------||
|-------------------------------------|----------------------------------------||
|-------------------------------------|---------------------------------------o||
|-------------------------------------|----------------------------------------||


  3.
   |--3--|  |--3--|  |--3--|  |--3--|    |--3--|  |--3--|  |--3--|  |--3--|
   E  E  E  E  E  E  E  E  E  E  E  E    E  E  E  E  E  E  E  E  E  E  E  E
|-------------------13-12-10----------|-19p15----19p15----19p15----19p15----|
|-13-12-10-13-12-10----------13-12-10-|-------17-------17-------17-------17-|
|-------------------------------------|-------------------------------------|
|-------------------------------------|-------------------------------------|
|-------------------------------------|-------------------------------------|
|-------------------------------------|-------------------------------------|
|
|  |--3--|  |--3--|  |--3--|  |--3--|    |--3--|  |--3--|  |--3--|  |--3--|
|  E  E  E  E  E  E  E  E  E  E  E  E    E  E  E  E  E  E  E  E  E  E  E  E
|-12-10--8-12-10--8-17-15-13-12-10--8-|-15p12----15p12----15p12----15p12----|
|-------------------------------------|-------12-------12-------12-------12-|
|-------------------------------------|-------------------------------------|
|-------------------------------------|-------------------------------------|
|-------------------------------------|-------------------------------------|
|-------------------------------------|-------------------------------------|


   |--3--|  |--3--|  |--3--|  |--3--|
   E  E  E  E  E  E  E  E  E  E  E  E
|-17p14----17p14----17p14----17p14-----|
|-------15-------15-------15-------15--|
|--------------------------------------|
|--------------------------------------|
|--------------------------------------|
|--------------------------------------|
|
|  |--3--|  |--3--|  |--3--|  |--3--|
|  E  E  E  E  E  E  E  E  E  E  E  E
|-14p10----14p10----14p10----14p10-----|
|-------10-------10-------10-------10--|
|--------------------------------------|
|--------------------------------------|
|--------------------------------------|
|--------------------------------------|


   |--3--|  |--3--|  |--3--|  |--3--|    |--3--|  |--3--|  |--3--|  |--3--|
   E  E  E  E  E  E  E  E  E  E  E  E    E  E  E  E  E  E  E  E  E  E  E  E
|-15p12----15p12----15p12----15p12----|----------------------------13-12-10-|
|-------13-------13-------13-------13-|-13-12-10-13-12-10-13-12-10----------|
|-------------------------------------|-------------------------------------|
|-------------------------------------|-------------------------------------|
|-------------------------------------|-------------------------------------|
|-------------------------------------|-------------------------------------|
|
|  |--3--|  |--3--|  |--3--|  |--3--|    |--3--|  |--3--|  |--3--|  |--3--|
|  E  E  E  E  E  E  E  E  E  E  E  E    E  E  E  E  E  E  E  E  E  E  E  E
|-12p=8----12p=8----12p=8----12p=8----|-12-10--8-12-10--8-12-10--8-17-15-13-|
|--------8--------8--------8--------8-|-------------------------------------|
|-------------------------------------|-------------------------------------|
|-------------------------------------|-------------------------------------|
|-------------------------------------|-------------------------------------|
|-------------------------------------|-------------------------------------|


  E5              G5
          |-3-|                      |--3--|
  H.      E E E    H.                E  E  E
|---------------|-----------------------------|
|---------------|-----------------------------|
|---------------|-----------------------------|
|-9-------9-9-9-|-12----------------12-12-12--|
|-7-------7-7-7-|-10----------------10-10-10--|
|---------------|-----------------------------|
|
|         |-3-|         |--3--|      |--3--|
| H.      E E E    Q    E  E  E  Q   E  E  E
|---------------|-----------------------------|
|---------------|-----------------------------|
|---------------|-----------------------------|
|-9-------9-9-9-|-12------------12------------|
|-7-------7-7-7-|-10---10-10-10-10--10-10-10--|
|---------------|-----------------------------|


  A5                           C5                B5
                     |--3--|    |--3--|  |--3--|  |--3--|
   H.                E  E  E    E  E  E  E  E  E  E  E  E  Q
|----------------------------|-----------------------------------|
|----------------------------|-----------------------------------|
|----------------------------|-12-12-12-12-12-12-11-11-11-11-----|
|-14----------------14-14-14-|-10-10-10-10-10-10--9--9--9--9-----|
|-12----------------12-12-12-|-----------------------------------|
|----------------------------|-----------------------------------|
|
|       |--3--|      |--3--|             |--3--|           |-3-|
|  Q    E  E  E  Q   E  E  E    Q        E  E  E  Q        E E E
|----------------------------|-----------------------------------|
|----------------------------|-----------------------------------|
|----------------------------|--5-----------------4--------------|
|-14------------14-----------|--5-----------------4--------------|
|-12---12-12-12-12--12-12-12-|--3--------3--3--3--2--------2-2-2-|
|----------------------------|-----------------------------------|


  E5                   G5
               |-3-|                      |--3--|
  H.           E E E    H.                E  E  E
|--------------------|------------------------------|
|--------------------|------------------------------|
|--------------------|------------------------------|
|-9------------9-9-9-|-12----------------12-12-12---|
|-7------------7-7-7-|-10----------------10-10-10---|
|--------------------|------------------------------|
|
|     |-3-|    |-3-|         |--3--|      |--3--|
| Q   E E E Q  E E E    Q    E  E  E  Q   E  E  E
|--------------------|------------------------------|
|--------------------|------------------------------|
|--------------------|------------------------------|
|-9---9-9-9-9--9-9-9-|-12------------12-------------|
|-7---7-7-7-7--7-7-7-|-10---10-10-10-10--10-10-10---|
|--------------------|------------------------------|


                                                                 S
  A5                           C5                B5
                     |--3--|    |--3--|  |--3--|  |--3--|
   H.                E  E  E    E  E  E  E  E  E  E  E  E  Q
|----------------------------|-----------------------------------|
|----------------------------|-----------------------------------|
|----------------------------|-12-12-12-12-12-12-11-11-11-11-----|
|-14----------------14-14-14-|-10-10-10-10-10-10--9--9--9--9-----|
|-12----------------12-12-12-|-----------------------------------|
|----------------------------|-----------------------------------|
|
|       |--3--|      |--3--|             |--3--|           |-3-|
|  Q    E  E  E  Q   E  E  E    Q        E  E  E  Q        E E E
|----------------------------|-----------------------------------|
|----------------------------|-----------------------------------|
|----------------------------|--5-----------------4--------------|
|-14------------14-----------|--5-----------------4--------------|
|-12---12-12-12-12--12-12-12-|--3--------3--3--3--2--------2-2-2-|
|----------------------------|-----------------------------------|


   Harmony Solo
 lower Q=120
    E5
    E S S E S S E S S S S S S
||------------------------------|
||o-----------------------------|
||------------------------------|
||--9-9-9-9-9-9-9-9-9-9---------|
||o-7-7-7-7-7-7-7-7-7-7-5---5---|
||------------------------7-----|
|
|   E S S E S S E S S S S S S
||------------------------------|
||o-----------------------------|
||------------------------------|
||--9-9-9-9-9-9-9-9-9-9---------|
||o-7-7-7-7-7-7-7-7-7-7-5---5---|
||------------------------7-----|


  E5
  Gtrs I, II
  E S S E S S E S S S S S S
|---------------------------|
|---------------------------|
|---------------------------|
|-9-9-9-9-9-9-9-9-9-9-------|
|-7-7-7-7-7-7-7-7-7-7-5---5-|
|-----------------------7---|


  G5                               G#5  A5           C5  D5
   E  S  S  E  S  S  E  S  S  E  S  S    E  S  S  Q   Q  Q
|-------------------------------------|----------------------||
|-------------------------------------|---------------------o||
|-------------------------------------|----------------------||
|-12-12-12-12-12-12-12-12-12-12-12S13-|-14-14-14-14------7---||
|-10-10-10-10-10-10-10-10-10-10-10S11-|-12-12-12-12--10--5--o||
|-------------------------------------|---------------8------||


    Gtr I
    E  S  S  E.  S  S  S  S  S  +E   E    +E   S  S  E.  S  S  S  S  S  +E   E
||-------------------------------------|----------------------------10-(10)----|
||o-------------------------12-(12)----|------12-10-12--10-12-10-12---------12-|
||----12-11-12--11-12-11-12---------12-|-(12)----------------------------------|
||-------------------------------------|---------------------------------------|
||o------------------------------------|---------------------------------------|
||-------------------------------------|---------------------------------------|
|
|   Gtr II
|   E  S  S  E.  S  S  S  S  S  +E   E    +E   S  S  E.  S  S  S  S  S  +E   E
||-------------------------------------|-----------------------------7--(7)----|
||o--------------------------8--(8)----|-------8--7--8---7--8--7--8----------8-|
||-----9--7--9---7--9--7--9----------9-|--(9)----------------------------------|
||-------------------------------------|---------------------------------------|
||o------------------------------------|---------------------------------------|
||-------------------------------------|---------------------------------------|


                                                           |--3--|  |--3--|
   +E   S  S  E.  S  S  S  S  S  +E   E    +E   S  S  Q    E  E  E  E  E  E
|---------------------------------------|--------------------------------------||
|-(12)-12-10-12--10-12-10-12-10-(10)----|-----------------12-10----10-12-10---o||
|------------------------------------12-|-(12)-12-11-12---------12-------------||
|---------------------------------------|--------------------------------------||
|---------------------------------------|-------------------------------------o||
|---------------------------------------|--------------------------------------||
|
|                                                          |--3--|  |--3--|
|  +E   S  S  E.  S  S  S  S  S  +E   E    +E   S  S  E E  E  E  E  E  E  E
|---------------------------------------|--------------------------------------||
|--(8)--8--7--8---7--8--7--8--7--(7)----|------------------8--7-----7--8--7---o||
|-------------------------------------9-|--(9)--9--7--9-9--------9-------------||
|---------------------------------------|--------------------------------------||
|---------------------------------------|-------------------------------------o||
|---------------------------------------|--------------------------------------||


 Guitar Solo
  E5
                                                     |--3--|  |--3--|                   |--3--|
   Q           Q   E     +Q    E       +S   S  S  S  S  S  S  S  S  S  E     S
|-------------12--------------------|---------------------------------------------|
|-15b17-----------15b17-(15)--15b17-|-(15)-15----15-13h15p13-12h13p12-------------|
|-----------------------------------|---------12----------------------14b16-14b16-|
|-----------------------------------|---------------------------------------------|
|-----------------------------------|---------------------------------------------|
|-----------------------------------|---------------------------------------------|

+S   S  S  S  S  S
--------------12-12-|
-----12-14-15-------|
(14)----------------|
--------------------|
--------------------|
--------------------|

|
|  S    S S S  Q  +H                    S   S  S  S  Q                +H
|-----------------------------------|---------------------------------------------|
|-----------------------------------|---------------------------------------------|
|-----------------------------------|---------------------------------------------|
|--9----9---9--9--(9)---------------|---9---9-----9--9----------------(9)---------|
|--7----7---7--7--(7)---------------|---7---7-----7--7----------------(7)---------|
|-----------------------------------|---------------------------------------------|


  G5
   E        E        E.    +S    S   S  E  +E   S  S
|-12b14----12b14----12b14r(12)------12------------12---|
|-------------------------------15-----12-(12)-15------|
|------------------------------------------------------|
|------------------------------------------------------|
|------------------------------------------------------|
|------------------------------------------------------|
|
|  S     S  S     S  Q          +H
|------------------------------------------------------|
|------------------------------------------------------|
|------------------------------------------------------|
|-12----12-------12-12---------(12)--------------------|
|-10----10-------10-10---------(10)--------------------|
|------------------------------------------------------|


  A5                                       C5       D5
   |---3----|  |---3----|  |--3--|  |-3--|
   S  S     S  S  S     S  S  S  S  S S  S  S  S  E  +E   S  S
|--------------------------------------------------------------|
|-15h17p===15-14h15p===14-12p10h12p10s8------------------------|
|---------------------------------------14-12----12-(12)-------|
|---------------------------------------------14---------------|
|--------------------------------------------------------14-14-|
|--------------------------------------------------------------|
|
|  S     S     S     S     Q                Q         Q
|--------------------------------------------------------------|
|--------------------------------------------------------------|
|--------------------------------------------------------------|
|-14----14----------14----14-----------------------------------|
|-12----12----------12----12---------------10--------12--------|
|-------------------------------------------8--------10--------|


  E5
          |-3-|       |--3--|
  S S S S S S S  S S  S  S  S E Q
|-------------------------------7--|
|-----7----------------------------|
|-8-9---9-8h9p8----8---------------|
|---------------10---10p=9h10-9----|
|----------------------------------|
|----------------------------------|
|
| S S S S Q          +H
|----------------------------------|
|----------------------------------|
|----------------------------------|
|-9-9---9-9----------(9)-----------|
|-7-7---7-7----------(7)-----------|
|----------------------------------|


  E5
               |--3--|  |--3--|
   S  S  S  S  S  S  S  S  S  S  T   T  T  T  E  +E   S  S
|-11-12-14-12-11-12-11-------------------------------------|
|----------------------13-16-13-12--13-12-11-13-(13)-13-15-|
|----------------------------------------------------------|
|----------------------------------------------------------|
|----------------------------------------------------------|
|----------------------------------------------------------|
|
|  S  S  S  S  Q                +H
|----------------------------------------------------------|
|----------------------------------------------------------|
|----------------------------------------------------------|
|--9--9-----9--9----------------(9)------------------------|
|--7--7-----7--7----------------(7)------------------------|
|----------------------------------------------------------|


  G5
   |---3---|  |--3---|
   E  E    E  E  E   E  +Q    S  S     +E
|----14---12----12--------------------------|
|-15---------15-----12-(12)-----------------|
|----------------------------12-14b16-(14)--|
|-------------------------------------------|
|-------------------------------------------|
|-------------------------------------------|
|
|  S  S S  S  Q         +H
|-------------------------------------------|
|-------------------------------------------|
|-------------------------------------------|
|-12-12---12-12--------(12)-----------------|
|-10-10---10-10--------(10)-----------------|
|-------------------------------------------|


  A5                        C5
                             |--3--|  |--3--|
   +S   S  S  S  S  S  S  S  S  S  S  S  S  S  S      S   E
|--------------------------------------------------------------|
|------------12-------12---------------------------------------|
|-(14)-14-12----14-12----12-11h12p11h12p11----11-----12--14----|
|------------------------------------------12------------------|
|--------------------------------------------------------------|
|--------------------------------------------------------------|
|
|   S   S  S  S  Q           Q                 S     +S   S  S
|--------------------------------------------------------12----|
|--------------------------------------------------------------|
|---------------------------------------------14b15r(14)----15-|
|--14--14----14-14---------------------------------------------|
|--12--12----12-12----------10---------------------------------|
|----------------------------8---------------------------------|


  E5
   S  S S  S      Q         +H                  S     S S  S   Q      +H
|--------------------------------------------|-------------------------------------------------|
|--------------------------------------------|-------------------------------------------------|
|--------------------------------------------|-------------------------------------------------|
|--9--9----9------9---------(9)--------------|--9-----9----9---9------(9)----------------------|
|--7--7----7------7---------(7)--------------|--7-----7----7---7------(7)----------------------|
|--------------------------------------------|-------------------------------------------------|
|
|  E.      S     +E   E     +Q    S  S  S  S    S     E    S  +E   E  +E   S S  S     S  S S
|--------------------------------12----------|---------------------------------------12--------|
|-15------15b17-(15)-15b17-(15)-----12-------|------------------------------------------12-----|
|--------------------------------------14-12-|-14b16-14---12-(12)---------12---14b16-----------|
|--------------------------------------------|--------------------14-(14)----------------------|
|--------------------------------------------|-------------------------------------------------|
|--------------------------------------------|-------------------------------------------------|


  G5
   S     S S  S  Q   +H
|-------------------------------------------|
|-------------------------------------------|
|-------------------------------------------|
|-12----12---12-12--(12)--------------------|
|-10----10---10-10--(10)--------------------|
|-------------------------------------------|
|
|  Q             Q    S   S  S S  E     +E
|---------------15--------------------------|
|---------------17---17--15------15b17-(15)-|
|-19b21---------------------16--------------|
|-------------------------------------------|
|-------------------------------------------|
|-------------------------------------------|


  A5               C5  D5      E5
    S   S S  S  Q   Q   Q       S    S S S  Q       +H
|----------------------------|-------------------------------------|
|----------------------------|-------------------------------------|
|----------------------------|-------------------------------------|
|--14--14---14-14-------7----|--9----9---9--9-------(9)------------|
|--12--12---12-12--10---5----|--7----7---7--7-------(7)------------|
|-------------------8--------|-------------------------------------|
|
|  +H               Q   E  E    Q           E.    S  S   E.  E  E
|------------------12--15-12-|-13b15-------13b15-12-----12--15-12--|
|-(15)-----------------------|----------------------15-------------|
|----------------------------|-------------------------------------|
|----------------------------|-------------------------------------|
|----------------------------|-------------------------------------|
|----------------------------|-------------------------------------|


  E5
   S  S  S  S  Q       +H
|---------------------------------|
|---------------------------------|
|---------------------------------|
|--9--9-----9--9-------(9)--------|
|--7--7-----7--7-------(7)--------|
|---------------------------------|
|
|  S  S  S  S  S  S  E  Q    E  E
|-19p15----17p15----15---------15-|
|-------17-------17----17---17----|
|---------------------------------|
|---------------------------------|
|---------------------------------|
|---------------------------------|


  G5
   S  S  S  S  Q           +H
|------------------------------------------------|
|------------------------------------------------|
|------------------------------------------------|
|-12-12----12-12----------(12)-------------------|
|-10-10----10-10----------(10)-------------------|
|------------------------------------------------|
|
|  S  S  S  S  S  S  S  S   S   S  S  S  S  S  E
|-19p15----17p15----19p15------17p15----19p15----|
|-------17-------17--------17--------17-------17-|
|------------------------------------------------|
|------------------------------------------------|
|------------------------------------------------|
|------------------------------------------------|


  A5                                        C5                D5
   S     S     S     S     Q                 Q                 Q
|----------------------------------------------------------------------|
|----------------------------------------------------------------------|
|----------------------------------------------------------------------|
|-14----14----------14----14-----------------------------------7-------|
|-12----12----------12----12----------------10-----------------5-------|
|--------------------------------------------8-------------------------|
|
|  |---------6----------|  |------6-------|  |------6-------|
|  S  S     S  S  S     S  S  S  S  S  S  S  S  S  S  S  S  S  S  S  E
|-19p15-------17p15-------19p15----17p15----19p15----17p15----19p15----|
|----------17----------17-------17-------17-------17-------17-------17-|
|----------------------------------------------------------------------|
|----------------------------------------------------------------------|
|----------------------------------------------------------------------|
|----------------------------------------------------------------------|


   Harmony Solo
    E  S  S  E.  S  S  S  S  S  +E   E    +E   S  S  E.  S  S  S  S  S  +E   E
||-------------------------------------|----------------------------10-(10)-------|
||o-------------------------12-(12)----|------12-10-12--10-12-10-12---------12----|
||----12-11-12--11-12-11-12---------12-|-(12)-------------------------------------|
||-------------------------------------|------------------------------------------|
||o------------------------------------|------------------------------------------|
||-------------------------------------|------------------------------------------|
|
|   E  S  S  E.  S  S  S  S  S  +E   E    +E   S  S  E.  S  S  S  S  S  +E   E
||-------------------------------------|-----------------------------7--(7)-------|
||o--------------------------8--(8)----|-------8--7--8---7--8--7--8----------8----|
||-----9--7--9---7--9--7--9----------9-|--(9)-------------------------------------|
||-------------------------------------|------------------------------------------|
||o------------------------------------|------------------------------------------|
||-------------------------------------|------------------------------------------|


                                                         |--3--|  |--3--|
   E  S  S  E.  S  S  S  S  S  +E   E    +E   S  S  Q    E  E  E  E  E  E
|-------------------------------------|------------------------------------||
|-12-12-10-12--10-12-10-12-10-(10)----|-----------------12-10----10-12-10-o||
|----------------------------------12-|-(12)-12-11-12---------12-----------||
|-------------------------------------|------------------------------------||
|-------------------------------------|-----------------------------------o||
|-------------------------------------|------------------------------------||
|
|                                                        |--3--|  |--3--|
|  E  S  S  E.  S  S  S  S  S  +E   E    +E   S  S  E E  E  E  E  E  E  E
|-------------------------------------|------------------------------------||
|--8--8--7--8---7--8--7--8--7--(7)----|------------------8--7-----7--8--7-o||
|-----------------------------------9-|--(9)--9--7--9-9--------9-----------||
|-------------------------------------|------------------------------------||
|-------------------------------------|-----------------------------------o||
|-------------------------------------|------------------------------------||


   Riff
    E5                          E5
    Gtrs I, II
    E S S E S S E S S S S S S   E S S E S S E S S S S S S
||----------------------------|---------------------------|
||o---------------------------|---------------------------|
||----------------------------|---------------------------|
||--9-9-9-9-9-9-9-9-9-9-------|-9-9-9-9-9-9-9-9-9-9-------|
||o-7-7-7-7-7-7-7-7-7-7-5---5-|-7-7-7-7-7-7-7-7-7-7-5---5-|
||------------------------7---|-----------------------7---|


  G5                               G#5  A5           C5  D5
   E  S  S  E  S  S  E  S  S  E  S  S    E  S  S  Q   Q  Q
|-------------------------------------|---------------------||
|-------------------------------------|--------------------o||
|-------------------------------------|---------------------||
|-12-12-12-12-12-12-12-12-12-12-12S13-|-14-14-14-14------7--||
|-10-10-10-10-10-10-10-10-10-10-10S11-|-12-12-12-12--10--5-o||
|-------------------------------------|---------------8-----||


 Verse
  Original Tempo Q=170
  E5    B5      C5      D5
  Gtrs I, II
  |-3-| |-3-|    |-3--| |-3-|
  Q Q Q Q Q Q    Q  Q Q Q Q Q
|-------------|---------------|
|-------------|---------------|
|-9-9---------|---------7-7-7-|
|-9-9---9-9---|-10-10---7-7-7-|
|-7-7---9-9---|-10-10---5-5-5-|
|-------7-7---|--8--8---------|


                                             D5
    |-3-|  |-3-| |-3-|  |-3-|   |-3-|  |-3-| |-3-|
    E E E  E E E E E E  E E E   E E E  E E E Q Q Q
||----------------------------|---------------------||
||o---------------------------|--------------------o||
||----------------------------|--------------7-7-7--||
||----------------------------|--------------7-7-7--||
||o-7-7-7-10-7-7-7-7-7-10-7-7-|-7-7-7-10-7-7-5-5-5-o||
||----------------------------|---------------------||


  E5    B5      C5      D5
  |-3-| |-3-|    |-3--| |-3-|
  Q Q Q Q Q Q    Q  Q Q Q Q Q
|-------------|---------------|
|-------------|---------------|
|-9-9---------|---------7-7-7-|
|-9-9---9-9---|-10-10---7-7-7-|
|-7-7---9-9---|-10-10---5-5-5-|
|-------7-7---|--8--8---------|


                                             D5
    |-3-|  |-3-| |-3-|  |-3-|   |-3-|  |-3-| |-3-|
    E E E  E E E E E E  E E E   E E E  E E E Q Q Q
||----------------------------|--------------------|
||o---------------------------|--------------------|
||----------------------------|--------------7-7-7-|
||----------------------------|--------------7-7-7-|
||o-7-7-7-10-7-7-7-7-7-10-7-7-|-7-7-7-10-7-7-5-5-5-|
||----------------------------|--------------------|


                                           D5
  |-3-|  |-3-| |-3-|  |-3-|   |-3-|  |-3-| |-3-| |-3-|
  E E E  E E E E E E  E E E   E E E  E E E E E E E E E
|---------------------------|--------------------------|
|---------------------------|--------------------------|
|---------------------------|--------------7---7-------|
|---------------------------|--------------7---7---4h5-|
|-7-7-7-10-7-7-7-7-7-10-7-7-|-7-7-7-10-7-7-5---5-------|
|---------------------------|--------------------------|


  |-3-| |-3-| |-3-|   |-3-| |-3-|
  E E E E E E Q Q Q   Q Q Q Q Q Q
|-------------------|----------------||
|-------------------|---------------o||
|-4-4-4-5-4---7-4---|-5-4------------||
|-----------5-----5-|-----5-4-5-7----||
|-------------------|---------------o||
|-------------------|----------------||


    |-3-|  |-3-| |-3-|  |-3-|
    E E E  E E E E E E  E E E
||----------------------------|
||o---------------------------|
||----------------------------|
||----------------------------|
||o-7-7-7-10-7-7-7-7-7-10-7-7-|
||----------------------------|


               D5        E5    B5      C5      D5
  |-3-|  |-3-| |-3-|     |-3-| |-3-|    |-3--| |-3-|
  E E E  E E E Q Q Q     Q Q Q Q Q Q    Q  Q Q Q Q Q
|---------------------||-------------|---------------|
|--------------------o||-------------|---------------|
|--------------7-7-7--||-9-9---------|---------7-7-7-|
|--------------7-7-7--||-9-9---9-9---|-10-10---7-7-7-|
|-7-7-7-10-7-7-5-5-5-o||-7-7---9-9---|-10-10---5-5-5-|
|---------------------||-------7-7---|--8--8---------|


                                             D5
    |-3-|  |-3-| |-3-|  |-3-|   |-3-|  |-3-| |-3-|
    E E E  E E E E E E  E E E   E E E  E E E Q Q Q
||----------------------------|---------------------||
||o---------------------------|--------------------o||
||----------------------------|--------------7-7-7--||
||----------------------------|--------------7-7-7--||
||o-7-7-7-10-7-7-7-7-7-10-7-7-|-7-7-7-10-7-7-5-5-5-o||
||----------------------------|---------------------||


  E5    B5      C5      D5      E5
  |-3-| |-3-|    |-3--| |-3-|
  Q Q Q Q Q Q    Q  Q Q Q Q Q   Q   Q  H
|-------------|---------------|-------------*|
|-------------|---------------|-------------*|
|-9-9---------|---------7-7-7-|-------------*|
|-9-9---9-9---|-10-10---7-7-7-|-9\----------*|
|-7-7---9-9---|-10-10---5-5-5-|-7\----------*|
|-------7-7---|--8--8---------|-------------*|

Duration Legend
---------------
W - whole; H - half; Q - quarter; E - 8th; S - 16th; T - 32nd; X - 64th; a - acciaccatura
+ - note tied to previous; . - note dotted; .. - note double dotted
Uncapitalized letters represent notes that are staccato (1/2 duration)
Irregular groupings are notated above the duration line
Duration letters will always appear directly above the note/fret number it represents the
duration for.  Duration letters with no fret number below them represent rests.  Multi-
bar rests are notated in the form Wxn, where n is the number of bars to rest for.  Low
melody durations appear below the staff

Tablature Legend
----------------
 h   - hammer-on
 p   - pull-off
 b   - bend
 pb  - pre-bend
 r   - bend release (if no number after the r, then release immediately)
 /\  - slide into or out of (from/to "nowhere")
 s   - legato slide
 S   - shift slide
 - natural harmonic
[n]  - artificial harmonic
n(n) - tapped harmonic
 ~   - vibrato
 tr  - trill
 T   - tap
 TP  - trem. picking
 PM  - palm muting
\n/  - tremolo bar dip; n = amount to dip
 \n  - tremolo bar down
 n/  - tremolo bar up
/n\  - tremolo bar inverted dip
 =   - hold bend; also acts as connecting device for hammers/pulls
 <> - volume swell (louder/softer)
 x   - on rhythm slash represents muted slash
 o   - on rhythm slash represents single note slash

Misc Legend
-----------
 |  - bar
||  - double bar
||o - repeat start
o|| - repeat end
*|  - double bar (ending)
 :  - bar (freetime)
 $  - Segno
 &  - Coda
Tempo markers -  = BPM(8/16=s8/s16), where s8 = swing 8ths, s16 = swing 16ths





Comments


Popular Iron Maiden tabs & chords
Hallowed Be Thy Name 4 Bass Tabs
Invaders Bass Tabs
Hallowed Be Thy Name Drum Tabs
Children Of The Damned 2 Tabs
Communication Breakdown Tabs
El Dorado 4 Tabs
Journeyman Live 2 Tabs
Look For The Truth Tabs
Nodding Donkey Blues Tabs
The Fugitive Tabs


Song lyrics



↑ Back to top | Tablatures and chords are parodies/interpretations of the original songs. You may use it for private study, scholarship, research or language learning purposes only
© 2014 AZChords.com Contact us | Privacy policy | DMCA | Add/correct tabs | Request tabs | Top 50 tabs