» » »

Iron Maiden, Phantom Of The Opera Bass tabs (ver.1)

Artists:  A B C D E F G H I J K L M N O P Q R S T U V W X Y Z # 

Phantom Of The Opera Bass tabs (ver.1)

Iron Maiden Tabs
Rating:
0/5 (0 votes)
Phantom Of The Opera lessons Tabs too difficult? Try these video lessons and learn fast
                                            PHANTOM OF OPERA
                              IRON MAIDEN
                              IRON MAIDEN
                                 1980

REFERENCES:
 r  = REST
 p  = PULL OFF
 h  = HAMMER OFF
 /  = sSLIDE
 b  = BEND
 ~  = VEBRATO
---
Triplet feel

---------444-544-7-4-------7-4-------------------------------|
-r45------------------5---------5--4-5--7----------------r45-|   X3
---------------------------------------------2---------------|
-------------------------------------------------------------|


-444-544-7-4-------7-4------------|
--------------5---------5--4-5--7-|
----------------------------------|
----------------------------------|


-----------------------222-555-777---999-999-799-999---799-999-9------|
-------------222---555------------------------------------------------|
-222-333-555-------------------------------------------------------9/-|
----------------------------------------------------------------------|


-------------------------------------|
-----5--------5----------5----5------|  X4
-777---77-777---77---777---77-----5--|
-------------------------------------|


-------------------------------------------------|
-----7--------7-------------8-------------8------|
-999---99-999---99---101010---1010-101010---1010-|  X3
-------------------------------------------------|


----------------------------------------------------------------------|
-----------------------------5-----------5-------5---------5----------|
-7-7--r--2-2--r----3-3--r0-5----5----777--77-777--77---777--77-5-5--5-|
----------------------------------------------------------------------|


-----------------------------------------------------|
-----5-------5--------5------------------5--------45-|
-777--77-777--77--777--77-5-5--5-----777--77-r-------|
-----------------------------------------------------|

Verse:
-444-544-7-4-------7-4------------------------------------------------|
--------------5---------5--4-5--7--------5-------5---------5----------|
-------------------------------------777--77-777--77---777--77-5-5--5-|
----------------------------------------------------------------------|


------------------------------------------------------|
-----5-------5---------5--------45---------5----------|
-777--77-777--77---777--77-5-5---------777--77-5-5--5-|
------------------------------------------------------|

------------------------------------------------------------------------|
-----------------------------5-------------5-------5---------5----------|
-7-7--r--2-2--r----3-3--r0-5----5------777--77-777--77---777--77-5-5--5-|
------------------------------------------------------------------------|

-----------------------------------------------------------------------|
-----------------------------5-----------5-------5---------5--------45-|
-7-7--r- 2-2--r----3-3--r0-5----5----777--77-777--77---777--77-5-5-----|
-----------------------------------------------------------------------|
End Verse


-----9-------9--------9----------------9-------9--------9-----------|
-------9-------9--------9----------------9-------9--------9---------|
-7-7-----7-7------7-7-----7---5----7-7-----7-7------7-7-----7---9---|  X3
--------------------------------------------------------------------|


------7-------7--------5-------5--------9-------9--------9-----------|
--------7-------7--------5-------5--------9-------9--------9---------|
--5-5-----5-5------3-3-----3-3------7-7-----7-7------7-7-----7---5---|
---------------------------------------------------------------------|


-----------------------------------------------------------|
-------------------------------------5--575-----------7----|
----------------7---777---77---8---88---------7--77700-07--|
-8---8-8-7-5---------------------------------------------0-|


--------------------------------------544------------------|
--------------------------------97---5---57---------7------|
----------------7---777--777---8---8----------7--777-0707--|
-8--8888-7-5---------------------------------------------0-|
						      ^ ^ ^

---------------------------------------75------------------|
------------------------------------55---75------------7---|
----------------7---777---77---8---8----------7--7770---07-|
-8---888-7-5-----------------------------------------------|
						     ^   ^

--------------------------------------7--7----------------|
--------------------------------7----5-7--7---------------|  pause
----------------7---777---7----8---8----------7-----------|
-8---888-7-5----------------------------------------------|


---1416---1416---1416---1416-|   X4
-14-----14-----14-----14-----|
-----------------------------|
-----------------------------|


-----------------------------------------------------------------------|
---------9-----------------7-----------------5-----------------7-------|
-777-077--77-077---555-755--55-755---333-533--33-533---555-755--55-755-|
-----------------------------------------------------------------------|


------12-12-12-10-9-7-5--|
--777--------------------|
--555--------------------|
-------------------------|

riff 2
------------------------------------------------------------------------|
-------------------------------------777 777 777 777 | 000-000-999-7----|
-777-777-777-777---000-000-000-000-----------------------------------00-|
------------------------------------------------------------------------|


----------------------------------------------------------------------097-|
-----------------------------------777-777-777-777---0-9-7-0-9-7-0-9-7----|
-777-777-777-777---000-000-000-000----------------------------------------|
--------------------------------------------------------------------------|


---------------------------------------------------------------------|
-----------------------------------5-555-555-555-56-7-777------------|
-7-777-777-7775-5-7-777-777-7775-5--------------5---------003---5----|
---------------7----------------7------------------------------------|


------------------|
------------------|
-77-77-777-777-5--|
------------------|

THATS IT...ITS A VERY DIFFCULT SONG AND ITS VERY COFUSING...PUT IN ORDER THE PARTS 
THEY ARE ALL MIX...
            
Submit corrections

comments powered by Disqus
↑ Back to top | Iron Maiden Bass for Phantom Of The Opera. Lyrics for acoustic guitar and electric guitar. Tablatures and chords are parodies/interpretations of the original songs. You may use it for private study, scholarship, research or language learning purposes only