» » »

Iron Maiden, Out Of The Shadows Tabs (ver.3)

Artists:  A B C D E F G H I J K L M N O P Q R S T U V W X Y Z # 

Out Of The Shadows Tabs (ver.3)

Iron Maiden Tabs
 Rating:
4/5 (4 votes)
Out Of The Shadows lessons Tabs too difficult? Try these video lessons and learn fast
                (Intro)
Out of the Shadows, by Iron Maiden (written by Dickinson/Harris) The sixth song from
latest album to date "A Matter of Life and Death".

I havn't really had time to tab the entire song, so I thought I'd just list the main
as these are basically repeated in one guise or another throughout. I'm doing this because
fun to hammer along to, uses some very common progressions that are easy to play, and 
be developed in many ways.

It's a beautiful song in terms of both lyric and music, written about personality and
sanctity of birth. It highlights Iron Maidens' maturing (and still blindingly good)
talents, with the embellishments over the rhythm section and especially the solo, 
dashes of warmth and colour. Excellent song.


INTRO

  A5         E5    C5          G5   D5          A5   F5        C5 D5

E|----------------|----------------|----------------|----------------|
B|----------------|----------------|----------------|----------------|
G|2-2-2-2--2------|5-5-5-5---5-----|7-7-7-7---7-----|----------5--7--|
D|2-2-2-2--2-2----|5-5-5-5---5—5---|7-7-7-7---7-7---|3-3-3-3---5--7--|
A|0-0-0-0—-0-2----|3-3-3-3---3-5---|5-5-5-5---5-7---|3-3-3-3---3--5--|
E|-----------0----|------------3---|------------5---|1-1-1-1---------|


VERSE

 Em                G                Em               G

E|--------0-------|--------3-------|--------0-------|--------3-------|
B|----------0-----|----------3-----|----------0-----|----------3-----|
G|------0-----2---|------0-----0---|------0-----0---|------0-----0---|
D|----2-----------|----0-----------|----2-----------|----0-----------|
A|----------------|----------------|----------------|----------------|
E|0---------------|3---------------|0---------------|3---------------|

  Em               G                D                Asus2

E|--------0-------|--------3-------|--------2-------|--------0-------|
B|----------0-----|----------3-----|------3---3-----|------0---0-----|
G|------0-----0---|------0-----0---|----2-------2---|----2-------2---|
D|----2-----------|----0-----------|0---------------|----------------|
A|----------------|----------------|----------------|0---------------|
E|0---------------|3---------------|----------------|----------------|


CHORUS

  E5               C5               D5               A5

E|----------------|----------------|----------------|----------------|
B|----------------|----------------|3---------------|----------------|
G|----------------|5---------------|2---------------|2---------------|
D|2---------------|5---------------|0---------------|2---------------|
A|2---------------|3---------------|----------------|0---------------|
E|0---------------|----------------|----------------|----------------|

Please note that when the intro section is repeated later in the song, it is played 2
higher up.
            
Submit corrections

comments powered by Disqus
↑ Back to top | Iron Maiden Tabs for Out Of The Shadows. Lyrics for acoustic guitar and electric guitar. Tablatures and chords are parodies/interpretations of the original songs. You may use it for private study, scholarship, research or language learning purposes only