>
 >
Out Of The Shadows 1

Out Of The Shadows 1 Guitar Tabs

Iron Maiden - Out Of The Shadows 1 chords, tabs, tablatures, lyrics

Guitar lessons | Add/correct | Request | Top 50 tabs Artists:  A B C D E F G H I J K L M N O P Q R S T U V W X Y Z 0-9

Out Of The Shadows 1 Guitar Tabs – Iron Maiden

CD, Sheet music, Poster

Do you like Out Of The Shadows 1? Share with your friends now
ChordsChords v2TabsTabs v2Tabs v3Ukulele

Tuning:STANDARD(EADGBe)

I was shocked to see that nobody tabbed this great song.This is off Iron Maiden's newest
" A MATTER OF LIFE AND DEATH". This is my first tab so be forgiving. I am sure this tab
about 85% correct. There are some parts that are very hard to hear so they were hard to
but I did my best. You may also notice there are a few small lead parts that are
I couldnt tab these b/c it was hard to hear it. I will put these parts up later.I have
the parts but you need to figure out the order of them: dont worry, its easy if you
to the song. Also, the last 2 minutes of the song are missing, I will put these up 
the next week. Get a head start on what I have down now and the last few parts will be
shortly! Enjoy!


 Intro: played 2 times

e|-----------------------------------------------------------------------------|
B|-----------------------------------------------------------------------------|
G|--2 -2--2--2----------------5--5--5--5----------------7--7--7--7-----2-------|
D|--2--2--2--2--------2-------5--5--5--5---------5------7--7--7--7-----2-------|
A|--0--0--0--0--------2-------3--3--3--3---------5------5--5--5--5-----0-------|
E|---------------0----0--------------------0-----3------------------0----------|

e|-----------------------------------------------------------------------------|
B|-----------------------------------------------------------------------------|
G|-------------------5----7----------------------------------------------------|
D|---3--3--3--3------5----7----------------------------------------------------|
-
A|---3--3--3--3------3----5-------------------------------------------------
-|
E|---1--1--1--1-------------------------------------------------------------


Verse: played a lot of times( Im too lazy to count)

e|------------0------------------3---------------------------------------------|
B|--------------0------------------3-------------------------------------------|
G|--------0-------0----------0-------0-----------------------------------------|
D|-----2-------------------0---------------------------------------------------|
A|-----------------------------------------------------------------------------|
E|--0-------------------3------------------------------------------------------|

   During the first verse, this is played once( listen and you'll see)

e|-----------------------------------------------------------------------------|
B|----15b17~r15--12-12-15------------------------------------------------------|
-
G|-------------------------14b16r14-12-14-12-14b16r14p12h14-------------

D|-------------------------------------------------------------9h12s7~---------|
A|-----------------------------------------------------------------------------|
E|-----------------------------------------------------------------------------|

  Chorus: (listen to song for timing)

e|-----------------------------------------------------------------------------|
B|-----------------------------------------------------------------------------|
G|-----------5-------7------2--------------------------------------------------|
D|--2--------5-------7------2--------------------------------------------------|
A|--2--------3-------5------0--------------------------------------------------|
E|--0--------------------------------------------------------------------------|
   During the second verse, there are two parts played. Listen to the song and you will
what I mean and where they are played.


e|-----------------------------------------------------------------------------|
B|-----------------------------------------------------------------------------|
G|---11b12r11----7h9p7h9p7----------------11b12r11---9-7-9~--------------------|
D|-------------------------9~--------------------------------------------------|
A|-----------------------------------------------------------------------------|
E|-----------------------------------------------------------------------------|

  In some of the choruses, a small part is played. Listen to song for   timing.


e|---17b19r17--17b19r17---15---------------------------------------------------|
B|----------------------------17~----------------------------------------------|
G|-----------------------------------------------------------------------------|
D|-----------------------------------------------------------------------------|
A|-----------------------------------------------------------------------------|
E|-----------------------------------------------------------------------------|
    And now for the first solo:


e|-----------------------------------------------------------------------------|
B|--------------10s12~~-----------------------------------10s12~---------------|
-
G|---9~--11-12-----------9~--7----------------9~--11-12~--------------------
-
D|--------------------------------7~s5-----------------------------------------|
A|--------------------------------------7~~------------------------------------|
E|-----------------------------------------------------------------------------|


e|--5------5~--------------7h8p7------7-----7-----7----7-----7-----------------|
B|------8-----8~------------------10-----8-----10----10---8--------------------|
G|-----------------7s9~-----------------------------------------9~-------------|
D|-----------------------------------------------------------------------------|
A|-----------------------------------------------------------------------------|
E|-----------------------------------------------------------------------------|

e|-----------------------------------------------------------------------------|
B|-----------------------------------------------------------------------------|
G|---7-------------------------------------------------------------------------|
D|------9-7-----7----7s5s7s5~--------------------------------------------------|
A|-----------9----9-----------7-7~---------------------------------------------|
E|-----------------------------------------------------------------------------|

e|--------------------------------------8-8------------------------------------|
B|------------------------------8-9-12-------12s10-8-10-10-/10-8~--------------|
G|----------------------7-9-11-------------------------------------------------|
D|--------------7-9-10---------------------------------------------------------|
A|-7-9-10-9-10-----------------------------------------------------------------|
E|-----------------------------------------------------------------------------|

e|--15p12----12------------------------------------------------------------

B|--------15----15-12-15p12-----12----------------------------------|
-
G|--------------------------14------14--12-------------------------------|
-
D|------------------------------------------14~~~----------------------------|
A|---------------------------------------------------------------------------|
E|---------------------------------------------------------------------------|

     Check back soon for the last few parts!!


| /  slide up
| \  slide down
| h  hammer-on
| p  pull-off
| ~  vibrato
| +  harmonic
| x  Mute note
===============================================================================





Comments


Popular Iron Maiden tabs & chords
Children Of The Damned 2 Bass Tabs
Ghost Of The Navigator Bass Tabs
Gates Of Tommorow Intro Chords
El Dorado 2 Tabs
Face In The Sand Tabs
Ides Of March 2 Tabs
Journeyman Live 2 Tabs
Losfer Words 2 Tabs
Prodigal Son 1 Tabs
Run Silent, Run Deep 1 Tabs


Song lyrics



↑ Back to top | Tablatures and chords are parodies/interpretations of the original songs. You may use it for private study, scholarship, research or language learning purposes only
© 2014 AZChords.com Contact us | Privacy policy | DMCA | Add/correct tabs | Request tabs | Top 50 tabs