>
 >
Out Of The Shadows

Out Of The Shadows Guitar Tabs

Iron Maiden - Out Of The Shadows chords, tabs, tablatures, lyrics

Guitar lessons | Add/correct | Request | Top 50 tabs Artists:  A B C D E F G H I J K L M N O P Q R S T U V W X Y Z 0-9

Out Of The Shadows Guitar Tabs – Iron Maiden

CD, Sheet music, Poster

Do you like Out Of The Shadows? Share with your friends now
ChordsChords v2TabsTabs v2Tabs v3Ukulele

Xxxx Please rate this tab xxxxX

Iron Maiden
A Matter Of Life And Death

INTRO

Guit.1,2 and 3

E|----------------|----------------|
B|----------------|----------------|
G|2-2-2-2---------|5-5-5-5---------|
D|2-2-2-2----2----|5-5-5-5----5---|
A|0-0-0-0---2----|3-3-3-3-----5---|
E|---------0-0----|----------3-3---|

E|----------------|----------------|
B|----------------|----------------|
G|7-7-7-7-----2---|----------5--7--|
D|7-7-7-7-----2---|3-3-3-3---5--7--|
A|5-5-5-5-----0---|3-3-3-3---3--5--|Repeat
E|----------0-----|1-1-1-1---------|

VERSE (O:26)

Guit.1 and 3

E|--------0-------|--------3-------|
B|----------0-----|----------3-----|
G|------0-----0---|------0-----0---|
D|----2-----------|----0-----------|
A|----------------|----------------|
E|0---------------|3---------------|

E|--------0-------|--------3-------|
B|----------0-----|----------3-----|
G|------0-----0---|------0-----0---|
D|----2-----------|----0-----------|
A|----------------|----------------|
E|0---------------|3---------------|

E|--------0-------|--------3-------|
B|----------0-----|----------3-----|
G|------0-----0---|------0-----0---|
D|----2-----------|----0-----------|
A|----------------|----------------|
E|0---------------|3---------------|
    ^
    here start guitar 2 licks n1 (1st time)(0:31)

E|--------2-------|--------0-------|
B|------3---3-----|------0---0-----|
G|----2-------2---|----2-------0---|
D|0---------------|----------------| Repeat Verse 3x
A|----------------|0---------------|
E|----------------|----------------|<1st time voice enter here

Guitar 2 licks n1

E|----------12------------------------------------------------|
B|--15~~~------12---15-------------12-------------------------|
G|----------------------14-14hb^-------15---14--12--14---14---|
D|------------------------------------------------------------|
A|------------------------------------------------------------|
E|------------------------------------------------------------|

E|----------------------------------------------|
B|----------------------------------------------|
G|---1212--14~~~~HOLD---p12--------------------|
D|----------------------------14p12-------------|
A|------------------------------------14s12~~~--|
E|----------------------------------------------|

Guit.2 lick n2 end of the verse (3rd time)(1:04)

E|------------------------------------------------------|
B|------------------------------------------------------|
G|--9---------------------12---14fb^^^^HOLD---p12-------|
D|-----12---------1214---------------------------------|
A|---------12s14----------------------------------------|
E|------------------------------------------------------|
E|------------------------------------------------------|
B|--15-------12-----------------------------------------|
G|------14qb-----15---14p12-----------------------------|
D|------------------------------------------------------|
A|------------------------------------------------------|
E|------------------------------------------------------|

CHORUS  Out of the shadows and into the sun(1:07)

E|----------------|----------------|
B|----------------|----------------|
G|----------------|5---5----X---X--|
D|2---2----X---X--|5---5----X---X--|
A|2---2----X---X--|3---3----X---X--|
E|0---0----X---X--|----------------|

E|----------------|-------------------|
B|7---7----X---X--|-------------------|
G|7---7----X---X--|2---2--------------|
D|5---5----X---X--|2---2---2~~~---X---|
A|----------------|0---0---2~~~---X---|
E|----------------|--------0~~~---X---|

Repeat chorus 3x

Guit.2 licks :end of the chorus (4th time)(1:29)

E|------------------------------------|
B|---15-------------------------------|
G|-------14fb^r---12---14~~~\\\-------|
D|------------------------------------|
A|------------------------------------|
E|------------------------------------|

Guit.1 and 3 go back to verse and at
the 8th chords guit.2 play this

E|----------------------------|
B|---7hb^^^r5-----------------|
G|-------------7p5---7p5s4~~~~|
D|----------------------------|
A|----------------------------|
E|----------------------------|

Then at the 12th chords

E|--------------------------------|
B|---7hb^^^r5---7p5---------------|
G|-------------------7---7---9~~~~|
D|--------------------------------|
A|--------------------------------|
E|--------------------------------|

Then guitar 2 play Guit.2 lick n2 (same as above )

Guitar 1,2,3 go back to the chorus  4x

At the end of the 4th time guitar 2 play this

E|------------------------------------|
B|---15-------------------------------|
G|-------14fb^r---12---14~~~\\\-------|
D|------------------------------------|
A|------------------------------------|
E|------------------------------------|

Guit.1 and Guit 3 go back to the verse

And Adrian Smith (guit.2) play this solo trough it

E|----------------------------------------------------|
B|---5~~~7---8---10s12~~~~----------------------------|
G|----------------------------------------------------|
D|----------------------14---12---9--------------14---|
A|-----------------------------------12---10~~~~------|
E|----------------------------------------------------|

E|-----------------------------------------------------|
B|-------------------------------10~~~-----------------|
G|--------------14s16~~--14-------------12-------------|
D|-----16---17---------------17-------------12s14~~~~--|
A|-----------------------------------------------------|
E|-----------------------------------------------------|

E|---------------------------------------------------|
B|---12---13---12------12------12------12--------12--|
G|-----------------14------14------12---------14-----|
D|---------------------------------------------------|
A|---------------------------------------------------|
E|---------------------------------------------------|

E|-----------------------------------------------------|
B|-------12--------------------------------------------|
G|---12------------------------------------------------|
D|-----------14~~~----12-------------------------------|
A|------------------------14---12------12------12------|
E|---------------------------------15------15------15--|

E|-------------------------------------------------|
B|-------------------------------------------------|
G|-------------------------------------------------|
D|-------------------------------------------------|
A|---12s10-----------------------------------------|
E|----------12--12---12s9s12---14--15--1214--15---|

E|--------------------------------------------------|
B|-------------------------------------------13-----|
G|-----------------------------12---14---16---------|
D|---------------12---14---16-----------------------|
A|---1214--15--------------------------------------|
E|--------------------------------------------------|

E|---------------------------------------------------|
B|---13----------------------------------------------|
G|-------16---14---12---14-----/14---14---12~~~~~~---|
D|---------------------------------------------------|
A|---------------------------------------------------|
E|---------------------------------------------------|

E|----------------------------------------------------|
B|---20--17--2017------------------------------------|
G|-------------------19--16--19--16------16-----------|
D|-----------------------------------19------19--17---|
A|----------------------------------------------------|
E|----------------------------------------------------|
  ^
 Guit.1 and guit.3 stop here with the following chord

E|---O~~~~~~---|
B|---O~~~~~~---|
G|---2~~~~~~---|
D|---2~~~~~~---|
A|---0~~~~~~---|
E|-------------|

Guit.1 ,2 and 3 go back to chorus 4x

And Guit.2 play this at the end of
the 1st time and at the end of the 3rd time

E|---17fb---17fb----17---------------|
B|------------------------17~~~~~~---|
G|-----------------------------------|
D|-----------------------------------|
A|-----------------------------------|
E|-----------------------------------|

The second part of the song

After the drums break Guit.2 and Guit.3 play this once
Then Dave Murray(Guit.1)join the two others
 and the three guitars play this 3x

E|---2---2---2---2---X---2~~~---2---2---X---|
B|---3---3---3---3---X---2~~~---2---2---X---|
G|---4---4---4---4---X---3~~~---3---3---X---|
D|---4---4---4---4---X---4~~~---4---4---X---|
A|---2---4---4---4---X---4~~~---4---4---X---|
E|-----------------------2~~~---2---2---X---|

E|--------------------5~~~---5---5---X---|
B|7---7---7---7---X---5~~~---5---5---X---|
G|7---7---7---7---X---6~~~---6---6---X---|
D|7---7---7---7---X---7~~~---7---7---X---|
A|5---5---5---5---X---7~~~---7---7---X---|
E|--------------------5~~~---5---5---X---|

E|---7---7---7---7---X---7~~~---7---7---X---|
B|---8---8---8---8---X---7~~~---7---7---X---|
G|---9---9---9---9---X---7~~~---7---7---X---|
D|---9---9---9---9---X---9~~~---9---9---X---|
A|---7---7---7---7---X---9~~~---9---9---X---|
E|-----------------------7~~~---7---7---X---|

E|-------------------------------------------|
B|-------------------------------------------|
G|---12---12---12---12---X---7---X---9---X---|
D|---12---12---12---12---X---7---X---9---X---|
A|---10---10---10---10---X---5---X---7---X---|
E|-------------------------------------------|

At the 3rd time Jenick Gers (Guit.3) plays this 2x

E|--------------------------------------------|
B|--------------------------------------------|
G|--------------------------------------------|
D|----------------------14----------16---16---|
A|---17---17---17---17------16~~--------------|
E|--------------------------------------------|

E|---------------------------------------|
B|---------------------------------------|
G|---------------------------------------|
D|---16p14----------------16~~~--14~~~---|
A|----------17---16---14-----------------|
E|---------------------------------------|

E|-----------------------------------------------|
B|-----------------------------------------------|
G|--16--16--16p14-----------------------16--16---|
D|-----------------17---16---14---16~~-----------|
A|-----------------------------------------------|
E|-----------------------------------------------|


E|----------------------------------------------------|
B|----------------------------------------------------|
G|---16p14------14------------------------------------|
D|----------17-----17--17--16--14--16--17--16--14-----|
A|----------------------------------------------------|
E|----------------------------------------------------|
                   P.M|-------------------------------|

Guit.1 and Guit.2 play this

E|-----------------------------------|
B|-----------------------------------|
G|---5---5---5---5---5---5---5---5---|
D|---5---5---5---5---5---5---5---5---|
A|---3---3---3---3---3---3---3---3---|
E|-----------------------------------|
             ^
             Here Guit.3 start to play Lick n5

E|-----------------------------------|
B|-----------------------------------|
G|---7---7---7---7---7---7---7---7---|
D|---7---7---7---7---7---7---7---7---|
A|---5---5---5---5---5---5---5---5---|
E|-----------------------------------|

Lick n5

E|-------------------------------------|
B|-------------------------------------|
G|-------------------------------------|
D|------------------9---11---12---14---|
A|---7h9---11---12---------------------|
E|-------------------------------------|

E|-------------------------------------------------|
B|-----------------------------14---15---17---17~~~|
G|---------------12---14---16----------------------|
D|---12h14---16------------------------------------|
A|-------------------------------------------------|
E|-------------------------------------------------|

Guit.1 and Guit.3 go back to chorus and play 7 times
Guit.2 play this at the end of the 1st,3rd ,5th,and 7th time

E|---17fb---17fb----17---------------|
B|------------------------17~~~~~~---|
G|-----------------------------------|
D|-----------------------------------|
A|-----------------------------------|
E|-----------------------------------|

Then Guit.1 and Guit.3 play this to finish the 3rd Chorus

E|-------------|
B|-------------|
G|---7~~~~~~---|
D|---7~~~~~~---|
A|---5~~~~~~---|
E|-------------|

And guit.2 play this

E|------------------------------------|
B|---15-------------------------------|
G|-------14fb^r---12---14~~~\\\-------|
D|------------------------------------|
A|------------------------------------|
E|------------------------------------|

Then Guit.1 and Guit.3 go back to Verse and play 2X
And Guit.2 play this to finish the song

E|-----------------------------------------------|
B|---15~~~~~---12---10hb^^r---8---10-----8~~~~~--|
G|------------------------------------9----------|
D|-----------------------------------------------|
A|-----------------------------------------------|
E|-----------------------------------------------|

E|-----------------------------------------|
B|--------8---10---------------------------|
G|---7h9----------9~~~~~---7---------------|
D|----------------------------9s7~~~~~-----|
A|-----------------------------------------|
E|-----------------------------------------|

Legend

fb: full bend
qb: quarter bend
hb: half bend
 s: slide
~~: let ring
 r: release
 X: mute strings
 \: slide down the neck
 /:       up       
P.M: Palm Mute

Xxxx Please rate this tab xxxxX





Comments


Popular Iron Maiden tabs & chords
Can I Play With Madness 2 Bass Tabs
Invaders 2 Bass Tabs
The Duellists Bass Tabs
Out Of The Shadows 1 Chords
Charlotte In The Harlot Tabs
Holy Smoke 2 Tabs
No More Lies 5 Tabs
Paschendale 2 Tabs
Pilgrim Tabs
Twighlight Zone 1 Tabs


Song lyrics



↑ Back to top | Tablatures and chords are parodies/interpretations of the original songs. You may use it for private study, scholarship, research or language learning purposes only
© 2014 AZChords.com Contact us | Privacy policy | DMCA | Add/correct tabs | Request tabs | Top 50 tabs