» » »

Iron Maiden, Only The Good Die Young Tabs (ver.1)

Artists:  A B C D E F G H I J K L M N O P Q R S T U V W X Y Z # 

Only The Good Die Young Tabs (ver.1)

Iron Maiden Tabs
Rating:
0/5 (0 votes)
Only The Good Die Young lessons Tabs too difficult? Try these video lessons and learn fast
                This is not my work, but just to explain, the opening riff has both guitars
on the one line. This dude is brilliant and should be commemerated.

Twynam

--------------758816EA2B47
Content-Transfer-Encoding: 7bit
Content-Disposition: inline; filename="Good.tab"


E-------------|-----|-----------5--7--5--------|--------5-----|---------|
B-------5--7--|--8--|-----5--8-----------8--5--|--8--8-----8--|---------|
G---4:--------|--4--|--------4--5--7--5--4-----|--4--4--5--4--|---------|
D---4:--5--7--|-----|-----5-----------------5--|--------------|---------|
A-------------|-----|--------------------------|--------------|---------|
E-------------|-----|--------------------------|--------------|---------|

E------------5--7--5--------|--------------|----------------------------|
B---8--5--8-----------8--5--|--7--7--8--7--|----------------------------|
G---4-----4--5--7--5--4-----|--------4-----|----------------------------|
D------5-----------------5--|--7--7-----7--|----------------------------|
A---------------------------|--------------|----------------------------|
E---------------------------|--------------|----------------------------|

E------------5--7--5--------|--------5------------|-----------|---------|
B---7--5--8-----------8--5--|--8--8-----8--7h8p7--|--5--5--7--|---------|
G---------4--5--7--5--4-----|--4--4--5--4--2-4-2--|-----------|---------|
D---7--5-----------------5--|---------------------|--5--5--7--|---------|
A---------------------------|---------------------|-----------|---------|
E---------------------------|---------------------|-----------|---------|

E------|-----------5--7--5--------|--------5-----|----------------------|
B---8--|-----5--8-----------8--5--|--8--8-----8--|----------------------|
G---4--|--------4--5--7--5--4-----|--4--4--5--4--|----------------------|
D------|-----5-----------------5--|--------------|----------------------|
A------|--------------------------|--------------|----------------------|
E------|--------------------------|--------------|----------------------|

E------------5--7--5--------|--------------|----------------------------|
B---8--5--8-----------8--5--|--7--7--8--7--|----------------------------|
G---4-----4--5--7--5--4-----|--------4-----|----------------------------|
D------5-----------------5--|--7--7-----7--|----------------------------|
A---------------------------|--------------|----------------------------|
E---------------------------|--------------|----------------------------|

E------------5--7--5--------|--------5------------|-----|---------------|
B---7--5--8-----------8--5--|--8--8-----8--7h8p7--|--5--|---------------|
G---------4--5--7--5--4-----|--4--4--5--4--2-4-2--|-----|---------------|
D---7--5-----------------5--|---------------------|--5--|---------------|
A---------------------------|---------------------|-----|---------------|
E---------------------------|---------------------|-----|---------------|

This is the verse rhythm part (play twice):

E-----------------------------------|-----------------------------|
B-----------------------------------|-----------------------------|
G---4:------------------------------|-----------------------------|
D---4:--5--5-5-5--5-5-5--5-5-5--5-5-|-5--5-5-5--5-5-2--2-2-2--2-2-|
A-------3--3-3-3--3-3-3--3-3-3--3-3-|-3--3-3-3--3-3-0--0-0-0--0-0-|
E-----------------------------------|-----------------------------|


E-------------------------------|-----------------------------|
B-------------------------------|-----------------------------|
G-------------------------------|-----------------------------|
D---9--9-9-9--9-9-9--9-9-9--9-9-|-9--9-9-9--9-9-9--9-9-9--9-9-|
A---7--7-7-7--7-7-7--7-7-7--7-7-|-7--7-7-7--7-7-7--7-7-7--7-7-|
E-------------------------------|-----------------------------|

There is a clean electric guitar playing some chords over top of
that part (play twice):

E----------|--------|-----0--|--(0)--------|----------------------------|
B-------3--|-----1--|--------|-------0--3--|----------------------------|
G---4:--4--|--4--2--|--0-----|-------------|----------------------------|
D---4:--5--|--5--2--|--2-----|-------------|----------------------------|
A-------3--|--3-----|--2-----|-------------|----------------------------|
E----------|--------|--0-----|-------------|----------------------------|

This is the next part:

E-----------------------------------|------------------------------|
B-----------------------------------|------------------------------|
G---4:------------------------------|------------------------------|
D---4:--------------------------4-4-|-5--5-5-5--5-5-5--5-5-5--5-5--|
A-------7--7-7-7--7-7-7--7-7-7--2-2-|-3--3-3-3--3-3-3--3-3-3--3-3--|
E-------5--5-5-5--5-5-5--5-5-5------|------------------------------|

E-----------------------------------|------------------------------|
B-----------------------------------|------------------------------|
G---4:------------------------------|------------------------------|
D---4:--------------------------4-4-|-5--5-5-5--5-5-5--5-5-5--5-5--|
A-------7--7-7-7--7-7-7--7-7-7--2-2-|-3--3-3-3--3-3-3--3-3-3--3-3--|
E-------5--5-5-5--5-5-5--5-5-5------|------------------------------|

E-----------------------------------|------------------------------|
B-----------------------------------|------------------------------|
G---4:------------------------------|---------------5--7--7--------|
D---4:--------------------------4-4-|-5--5-5-5--5-5-5--7--5--------|
A-------7--7-7-7--7-7-7--7-7-7--2-2-|-3--3-3-3--3-3-3--5-----------|
E-------5--5-5-5--5-5-5--5-5-5------|------------------------------|


E--------------------------------|-------------------------------|
B--------------------------------|-------------------------------|
G--------------------------------|-------------------------------|
D---9--9-9-9--9-9-9--9-9-9--9-9--|-------------------------------|
A---7--7-7-7--7-7-7--7-7-7--7-7--|-------------------------------|
E--------------------------------|-------------------------------|

Then it repeats from the verse riff up until the above part once more.
After that it goes into the chorus:


E-------||--------------------------------|----------------------------|
B-------||--------------------------------|----------------------------|
G---4:--||*-------------------------------|----------------------------|
D---4:--||*--7--7-7-7--7-7-7--7-7-7--7-7--|-7--7-7-7--7-7-7--7-7-7-----|
A-------||---5--5-5-5--5-5-5--5-5-5--5-5--|-5--5-5-5--5-5-5--5-5-5--1--|
E-------||--------------------------------|----------------------------|

E-------------------|------------------||--|
B----------1--------|-----------3------||--|
G-------------3-----|--------------5--*||--|
D-------3-----------|--------5--------*||--|
A--(1)-----------3--|---(3)------------||--|
E-------------------|------------------||--|

E||-------------------------------|----------------------------|
B||-------------------------------|----------------------------|
G||*--5--5-5-5--5-5-5--5-5-5--5-5-|-5--5-5-5--5-5-5--5-5-5-----|
D||*--3--3-3-3--3-3-3--3-3-3--3-3-|-3--3-3-3--3-3-3--3-3-3-----|
A||-------------------------------|-------------------------4--|
E||-------------------------------|----------------------------|

E-------------------------|------------------------||
B-------------------------|------------------------||
G-------------------------|-----------------------*||
D-------3-----6--5--3-----|--------5-----6--5-----*||
A--(4)-----4-----------6--|---(6)-----6--------6---||
E-------------------------|------------------------||

Then comes the solo. This is the rhythm part (just basic powerchords, no
fancy rhythm patterns or anything....play twice):

E----------|--------|-----|-----|-----|--------|-----|-----|------------|
B----------|--------|-----|-----|-----|--------|-----|-----|------------|
G---4:-----|--------|-----|--6--|-----|--------|-----|-----|------------|
D---4:--4--|--5--2--|--4--|--6--|--4--|--5--2--|--4--|--4--|------------|
A-------4--|--5--2--|--4--|--4--|--4--|--5--2--|--4--|--4--|------------|
E-------2--|--3--0--|--2--|-----|--2--|--3--0--|--2--|--2--|------------|

Now comes a Bass interlude. This is the guitar part (play this 8 times..
pretty easy, eh?):

E-----------------------------------|---------------------------|
B-----------------------------------|---------------------------|
G---4:------------------------------|---------------------------|
D---4:--2--2-2-2--2-2-2--2-2-2--2-2-|---------------------------|
A-------2--2-2-2--2-2-2--2-2-2--2-2-|---------------------------|
E-------0--0-0-0--0-0-0--0-0-0--0-0-|---------------------------|

Now go way back to the intro riff and repeat from there all the way
until the end of the chorus (don't forget to do the repeat the I
previously mentioned above!!). Then the rhythm guitar plays the rhythm
part for the solo once (don't hold the last F#5 powerchord). Then there
is another solo at then end. The rhythm guitar just tremolo picks an F#5
powerchord for a bit, then switches to an E5. Then it goes back into
"Seven deadly sins......" Here are the chords to that part:

E-------0--|--2--|--0--|-----|--0--|--0--|--2--|--0--|-----|--2--|------|
B-------0--|--3--|--1--|--0--|--0--|--0--|--3--|--1--|--0--|--3--|------|
G---4:--0--|--2--|--2--|--0--|--0--|--0--|--2--|--2--|--0--|--2--|------|
D---4:--2--|--0--|--2--|--2--|--2--|--2--|--0--|--2--|--2--|--0--|------|
A-------2--|-----|--0--|--3--|--2--|--2--|-----|--0--|--3--|-----|------|
E-------0--|-----|-----|-----|--0--|--0--|-----|-----|-----|-----|------|

Here's the first solo:

E--------------------------17--14--|------------------------------------|
B-----------------15---------------|------------------------------------|
G---4:--16^--16^------16^----------|------------------------------------|
D---4:-----------------------------|------------------------------------|
A----------------------------------|------------------------------------|
E----------------------------------|------------------------------------|

E---------------------------------------|------|------------------------|
B---14^--14^--14--12--14^--14^--14--12--|------|------------------------|
G---------------------------------------|--11--|------------------------|
D---------------------------------------|------|------------------------|
A---------------------------------------|------|------------------------|
E---------------------------------------|------|------------------------|

E---------------------------------------|--------------------------|----|
B---------------------------------------|-----9^--(9)--7-----------|----|
G---------------------------1--2--1-----|-----------------6--------|----|
D---------------------2--4-----------4--|--------------------7--6--|----|
A------------2--4--5--------------------|--------------------------|----|
E---2--4--5-----------------------------|--------------------------|----|


                                           dive w/bar
E---------------------|-----------------|-------|-----------------------|
B------------5--------|-----5--3--5--3--|--(3)--|-----------------------|
G---------2-----7--6--|--6--------------|-------|-----------------------|
D---4--6--------------|-----------------|-------|-----------------------|
A---------------------|-----------------|-------|-----------------------|
E---------------------|-----------------|-------|-----------------------|

E---------------------------------------|-------------------------------|
B---------------------5-----------6--2--|-------------------------------|
G------------4--6--7-----7--6--4--------|-------------------------------|
D---4--6--7-----------------------------|-------------------------------|
A---------------------------------------|-------------------------------|
E---------------------------------------|-------------------------------|

E---------------------------------------|-----|-------------------------|
B---5--3--2-----6--2--5--3--2-----------|-----|-------------------------|
G------------4-----------------4--2-----|-----|-------------------------|
D------------------------------------5--|--4--|-------------------------|
A---------------------------------------|-----|-------------------------|
E---------------------------------------|-----|-------------------------|

E---------------16^--(16)--|--14------------------14--|-----------------|
B-----------14-------------|------14------------------|-----------------|
G-------14-----------------|----------14------14------|-----------------|
D---16---------------------|--------------16----------|-----------------|
A--------------------------|--------------------------|-----------------|
E--------------------------|--------------------------|-----------------|

E---------------------------|-------------------------------------------|
B---17--15--14--15--14------|-------------------------------------------|
G-----------------------16--|-------------------------------------------|
D---------------------------|-------------------------------------------|
A---------------------------|-------------------------------------------|
E---------------------------|-------------------------------------------|

E-------------------14--16--17--------------|--17^--(17)--16--19^--|----|
B---14--14--16--17--------------14--16--17--|----------------------|----|
G-------------------------------------------|----------------------|----|
D-------------------------------------------|----------------------|----|
A-------------------------------------------|----------------------|----|
E-------------------------------------------|----------------------|----|

Here's the end solo:

E-----------|---------9--10--9--7--9--10--|--16--16^--(16)--14--|-------|
B-------7^--|--7--10----------------------|---------------------|-------|
G---4:------|-----------------------------|---------------------|-------|
D---4:------|-----------------------------|---------------------|-------|
A-----------|-----------------------------|---------------------|-------|
E-----------|-----------------------------|---------------------|-------|

E---------------|--14--16--17--19^--|-----------------------------------|
B---14--15--17--|-------------------|-----------------------------------|
G---------------|-------------------|-----------------------------------|
D---------------|-------------------|-----------------------------------|
A---------------|-------------------|-----------------------------------|
E---------------|-------------------|-----------------------------------|


                                       dive w/bar
E---19^--(19)--17--16--17--16--14^--|--(14)--|--------------------------|
B-----------------------------------|--------|--------------------------|
G-----------------------------------|--------|--------------------------|
D-----------------------------------|--------|--------------------------|
A-----------------------------------|--------|--------------------------|
E-----------------------------------|--------|--------------------------|


    pick slide  trill...          trill...  trill...
E---------------14--(17)-------------------------------------------------|
B----------17^------------17--14--14--(17)--14--(15)--15--14--12---------|
G-----------------------------------------------------------------14-----|
D---xx/x-----------------------------------------------------------------|
A---xx/x-----------------------------------------------------------------|
E------------------------------------------------------------------------|

E-----------------------------------------------------------------------|
B---------------------------------------------------------------14------|
G---13--13--14--13--14--13--14--13------------------------------13------|
D-----------------------------------16--14--16--14----------------------|
A---------------------------------------------------16--14--12----------|
E-----------------------------------------------------------------------|


                        gradually release bend
E-----------------------9----|------------------------------------------|
B------14---14-~~~--10--12^--|------------------------------------------|
G---^--13^--13^--------------|------------------------------------------|
D----------------------------|------------------------------------------|
A----------------------------|------------------------------------------|
E----------------------------|------------------------------------------|


    power chord switches to E5         trill...
E------------------12--15--12-------------------------------------------|
B---15--------15^--------------12--15--12--(15)-------------------------|
G---14^--14^-------------------------------------12--14--12--14^--------|
D-----------------------------------------------------------------------|
A-----------------------------------------------------------------------|
E-----------------------------------------------------------------------|


                                     trill...                 pick slide
E-----------------------------------------------------------------------|
B-----------------------------------------------------------------------|
G---(14)--14--14--14^--(14)--12--14--12--(14)--12--14--12---------------|
D----------------------------------------------------------14--x/x/x----|
A--------------------------------------------------------------x/x/x----|
E-----------------------------------------------------------------------|

E---15^--(15)--15--14--12--14--12---------------------------------------|
B----------------------------------13--15--14--12--13--12--10--12-------|
G-----------------------------------------------------------------------|
D-----------------------------------------------------------------------|
A-----------------------------------------------------------------------|
E-----------------------------------------------------------------------|

E----------------------------------------------|------------------------|
B---11--8--10--8--7---------12-----------------|------------------------|
G--------------------9--11--11^~~~--13^--(13)--|------------------------|
D----------------------------------------------|------------------------|
A----------------------------------------------|------------------------|
E----------------------------------------------|------------------------|
            
Submit corrections

comments powered by Disqus
↑ Back to top | Iron Maiden Tabs for Only The Good Die Young. Lyrics for acoustic guitar and electric guitar. Tablatures and chords are parodies/interpretations of the original songs. You may use it for private study, scholarship, research or language learning purposes only