» » »

Iron Maiden, No More Lies Tabs (ver.5)

Artists:  A B C D E F G H I J K L M N O P Q R S T U V W X Y Z # 

No More Lies Tabs (ver.5)

Iron Maiden Tabs
 Rating:
4/5 (4 votes)
No More Lies lessons Tabs too difficult? Try these video lessons and learn fast
1
                I finally took some time out of my busy guitar added schedule and tabbed the no more lies
solo ( Top bar is thinnest String )
Thinnest String
|--------------------------------|
|--------------------------------|
|--7b-9-9-9-9-9-9-9-9-9-9--------|
|--------------------------------|
|--------------------------------|
|--------------------------------|


                                                          
|--------12-15-12----12h15h12----12h15h12-----12h15h12----|
|-----13----------15b---------15b---------15b----------15-|
|--14-----------------------------------------------------|
|---------------------------------------------------------|
|---------------------------------------------------------|
|---------------------------------------------------------|


                                                              
|-----12h17h12------------------------------------------------|
|--13----------13-12h13h12----12h13h12------------------------|
|--------------------------14----------14r--14h12-14-12-------|
|-------------------------------------------------------14-12-|
|-------------------------------------------------------------|
|-------------------------------------------------------------|


                                                  
|----------------------------------12-15b---15b---|
|--12h15h12h15------------------13----------------|
|--------------12h14h12h14/7/14-------------------|
|-------------------------------------------------|
|-------------------------------------------------|
|-------------------------------------------------|


                                                                             
|----------17--20-19h20h19-17-19~-------|--20--19--17------------------------|
|------17-------------------------------|--------------20--18--17------------|
|--17-----------------------------------|--------------------------19~-------|
|---------------------------------------|------------------------------------|
|---------------------------------------|------------------------------------|
|---------------------------------------|------------------------------------|


                                             
|--------17----------------------------------|
|-----17----17----------------------17h20h17-|
|--19----------19r--17h19-------19b----------|
|--------------------------------------------|
|--------------------------------------------|
|--------------------------------------------|


                                                    
|---------------------------17h20h17----------------|
|-----17h20h17-----17h20h17----------17-20b---20b---|
|--19b---------19b----------------------------------|
|---------------------------------------------------|
|---------------------------------------------------|
|---------------------------------------------------|


Part 2
                                                                   
|-------------------------------|---------------------------------------|
|-------------------------------|----------------------8---------8-10---|
|-------------------------------|--7---------9------7-----9--10---------|
|--7--------7--9--10--7--9--10--|-----9--10-----10----------------------|
|-------------------------------|---------------------------------------|
|-------------------------------|---------------------------------------|


                                                                          
|-------5h8h5-----------5----------------|----------------------------------|
|----8b-------5h8h5---5---8h5------------|-----------------8----------------|
|-------------------7b--------7h5---5h7--|------7-9-10-9-7---9-10-----------|
|---------------------------------7------|----7-------------------10-9-10---|
|----------------------------------------|----------------------------------|
|----------------------------------------|----------------------------------|


                                                                        
|--12h17h12----------12h17h12----------12h17h12----------12h17h12-------|
|-----------13----13----------13----13----------13----13----------------|
|--------------14----------------14----------------14-------------14-14-|
|-----------------------------------------------------------------------|
|-----------------------------------------------------------------------|
|-----------------------------------------------------------------------|


                                      
|-------------------------------------|
|-------------------------------------|
|------14-12-10----12----10----9------|
|---------------14----14----12--------|
|--------------------------------12---|
|-------------------------------------|


                                                   
|--------------------------------12-------12-13----|
|-----12-13----12-13-15-12-13-15----13-15-------15-|
|--14-------14-------------------------------------|
|--------------------------------------------------|
|--------------------------------------------------|
|--------------------------------------------------|


                                                                               
|--------------------------17------17--19b---|
|--17--18--20--17--18--20------20------------|
|--------------------------------------------|
|--------------------------------------------|
|--------------------------------------------|
|--------------------------------------------|

Part 3

|---------------------------------|
|---------------------------------|
|--7b---------7-5-4h5-4h5-4h5-4h5-|
|---------------------------------|
|---------------------------------|
|---------------------------------|
                                               
|-----------------------------------------------|
|-----------------------------------------------|
|--4h5h4h5h4h5h4h5-4h5h4h5-5h7h5h7h7------------|
|--------------------------------------7h5------|
|------------------------------------------7----|
|-----------------------------------------------|


                                            
|-------------------------------------------|
|--15b----15-13-12-13-15h13h12-13-15--13----|
|----------------------------------------14-|
|-------------------------------------------|
|-------------------------------------------|
|-------------------------------------------|


                                            
|-----------12------------------------------|
|--12-13-15-----15-13-12-15-13h12-----------|
|---------------------------------14-12-----|
|-------------------------------------------|
|-------------------------------------------|
|-------------------------------------------|


                                                 
|---------------------------17-------17-19-20-22-|
|------17----17-18-17-18-20----18-20-------------|
|--19b----19-------------------------------------|
|------------------------------------------------|
|------------------------------------------------|
|------------------------------------------------|


                                         
|---20-19-17----17--------------17-------|
|------------17----17-20b----17----17-20b|
|----------------------------------------|
|----------------------------------------|
|----------------------------------------|
|----------------------------------------|


                                                                 
|----------------------------------------------------------------|
|----------------------------------------------------------------|
|----19h17-12h14h12h14h12h14-------------------------------------|
|----------------------------12h14h12h14h12h14-10h12h10h12-------|
|----------------------------------------------------------12/---|
|----------------------------------------------------------------|


                                                                                
|-------------------------------------------------------------------------------|
|--17h20h17----17h20h17----17h20h17----17h20h17----17h20h17----17h20h17----20~--|
|-----------19----------19----------19----------19----------19----------19------|
|-------------------------------------------------------------------------------|
|-------------------------------------------------------------------------------|
|-------------------------------------------------------------------------------|

before the solo begins play all the intros again in same order and same amount in the same way
            
Submit corrections

comments powered by Disqus
↑ Back to top | Iron Maiden Tabs for No More Lies. Lyrics for acoustic guitar and electric guitar. 1 Tablatures and chords are parodies/interpretations of the original songs. You may use it for private study, scholarship, research or language learning purposes only