>
 >
New Frontier

New Frontier Guitar Tabs

Iron Maiden - New Frontier chords, tabs, tablatures, lyrics

Guitar lessons | Add/correct | Request | Top 50 tabs Artists:  A B C D E F G H I J K L M N O P Q R S T U V W X Y Z 0-9

New Frontier Guitar Tabs – Iron Maiden

CD, Sheet music, Poster

Do you like New Frontier? Share with your friends now
Bass TabsTabs
SONG-NEW FRONTIER
BAND-IRON MAIDEN
ALBUM-DANCE OF DEATH

Standard tuning
(EADGBE)
Intro
|-------------------------------------------------------------------------------|
|------6------------------6-----------------------------------------------------|
|--7---5----5---------7---5---5----------------10--------10--------10--------10-|
|--7---3----5----5----7---3---5---5----5///12------12--0-----12--0----12--0-----|
|--5---3----3----5----5---3---3---5---------------------------------------------|
|----------------3----------------3---------------------------------------------|

|-------------------------------------------------------------------------------|
|-------------------------------------------------------------------------------|
|-----------------------------------------------------------------3-------5-----|
|--------10---------10---------10--------9---------7--------5-----3-------5-----|
|-12--0------12--0------12--0------12--0----10--0-----9--0----7---1-------3-----|
|-------------------------------------------------------------------------------|

Verse
|-------------------------------------------------------------------------------\\
|------------------------------------------------------------------------------- \\
|---------------------------------------------------------7---------------------  \\repeat 4 times
|-----9--9--9--------9------6--7--9--------9---9--9-------7--10-9--9------------  / 
|-----7--7--7--------7------7--7--7--------7---7--7-------------7--7------------ /
|--0-----------0--0-----0-0---0--0---0--0------------0--0-----------------------/

------------------------------------------------------------|
------------------------------------------------------------|
------------------------------------------------------------|
-7---7--7------4--5--5--7--5---5--5--------2--3-----5-------|
-5---5--5------5--5--5--5--3---3--3--3--3--3--3-----3-------|
----------0--0-----------------------------------------0----| back to verse

pre chorus
|----------------------------------------------------------------------|
|----------------------------------------------------------------------|
|----------------------------------------------------------------------|
|--2-------------3--------------5-------------3----------3-----5-----3-|
|--0-------------1--------------3-------------1----------1-----3-----1-|
|----------------------------------------------------------------------|repeat 2

chorus
|-------------------------------------------------------------------------|
|-------------------------------------------------------------------------|
|--------10-7---10-------10-------10-------10-------10-------10--------7--|
|-5///12------0----12--0----12--0----12--0----12--0----12--0----12--0-----|
|-------------------------------------------------------------------------|
|-------------------------------------------------------------------------|

|-------------------------------------------------------------------------|
|-------------------------------------------------------------------------|
|--------7--------5-------10-7---10------10------10--------10-------10--7-|
|--9--0-----9--0----7--0-------0----12-0----12-0----12--0-----12--0-------|
|-------------------------------------------------------------------------|
|-------------------------------------------------------------------------|

|------------------------------------------------------------------------------------|
|------------------------------------------------------------------------------------|
|----10--------10--7-----12---------14---0//7-10-7---10------10------10------10------|
|-0------12--0--------0------14--0-----------------0----12-0----12-0----12-0----0-0--|
|------------------------------------------------------------------------------------|
|------------------------------------------------------------------------------------|

|-----------------------------------------------------------------------------------|
|-----------------------------------------------------------------------------------|
|-10-10-------10------10-------14------10-------------------------------------------|
|-------12-0-----12-0-----12-0----12-0--------3---------------5---------------------|
|------------------------------------------0--1---------------3---------------------|
|-----------------------------------------------------------------------------------|

Interlude
|----------------------------------------------------------------|
|----------------------------------------------------------------|
|----------------------------------------------------------------|
|-7-------7-------7---9---10--12\\-5-------5-------5---10--9---5--|
|-5-5-5-5-5-5-5-5-5---7---8---10\\-3-3-3-3-3-3-3-3-3---8---7---3--|
|----------------------------------------------------------------|

|-----------------------------------------|
|-----------------------------------------|
|-----------------------------------------|
|-7-------7-------7--9--10--12---3----5---|
|-5-5-5-5-5-5-5-5-5--7--8---10---1----3---|
|-----------------------------------------|

SOLO
|---------------------------------------8B---------------8B-----------------|
|-------------------------------3---------------13p10---------13p10---------|
|---7(wah-wah-/-slow-dive)--------------------------------------------------|
|---------------------------------------------------------------------------|
|-----------------------------------------------------------------------12--|
|---------------------------------------------------------------------------|

|---------------13----17p13----------13h17p13----13------12-------------------|
|-----------17--------------17p13h17----------17----17p3----13p/10--13p10-----|
|-------------------------------------------------------------------------13--|
|-----------------------------------------------------------------------------|
|-(12)\\-----------------------------------------------------------------------|
|-----------------------------------------------------------------------------|

|----------------------------------------------------------------------------------|
|-10-------------------------------------------------------------------------------|
|-----12p10--12p10p\\9--10p9p\\7--9--------------------------------------------------|
|----------------------------------12p10--12p10p\\8--10p8p\\7--8p7p5--7p5h8--5~~~~~--|
|----------------------------------------------------------------------------------|
|----------------------------------------------------------------------------------|

|-----------------------15----------15--17------15--17--18--17--15-------15----|
|----15----15--17--18-------17--18----------18----------------------18---------|
|------------------------------------------------------------------------------|
|-x----------------------------------------------------------------------------|
|------------------------------------------------------------------------------|
|------------------------------------------------------------------------------|

|------------------------------------15-17-18----------15-17-18----------15-17--------15-17--|
|--18--17--15--14---14-----15-17-18-----------15-17-18----------15-17-18---------------------|
|--------------------------------------------------------------------------------------------|
|--------------------------------------------------------------------------------------------|
|--------------------------------------------------------------------------------------------|
|--------------------------------------------------------------------------------------------|

|--------------------------------------------------------------------------------|
|--------------------------------------------------------------------------------|
|--------------------------------------------------------------------------------|
|-3------------3-------------3-----3-----3------5-----------5----5----5----5-----|
|-1------------1-------------1-----1-----1------3-----------3----3----3----------|
|--------------------------------------------------------------------------------|

|--18----15----17----18----15----17----20---20B----20---20B----------|
|--------------------------------------------------------------------|
|--------------------------------------------------------------------|
|---------------------------------------------------------------0----|
|--------------------------------------------------------------------|
|--------------------------------------------------------------------|

chords above are harmony for this bit
Interlude
|----------------------------------------------------------------------|
|----------------------------------------------------------------------|
|--7---7p3----------8---8p5--------------------------------------------|
|-----------5--5-------------5---------8--8p5--8---------7---7p4-----5-|
|-------------------------------5---5-------------5---5-----------5----|
|----------------------------------------------------------------------|

|-----------------------------------------------------------------------|
|--15--15p11----------16--16p13-----------------------------------------|
|-------------12----------------12-----15--15p12---------14--14p11------|
|----------------12----------------12------------12--12------------12---|
|-----------------------------------------------------------------------|
|-----------------------------------------------------------------------|

|-----------------------------------------------------------------------|
|-10h11-13---13--11--13--13h5---16--25--13----15--13--11----13p11-------|
|------------------------------------------------------------------12---|
|-----------------------------------------------------------------------|
|-----------------------------------------------------------------------|
|-----------------------------------------------------------------------|

|----------------------------------------------------------------------------|
|-11---11p10-----------13--13p11p10-------15--15p13p11------13--13p11p10-----|
|-------------12--12-----------------11-----------------11----------------12-|
|----------------------------------------------------------------------------|
|----------------------------------------------------------------------------|
|----------------------------------------------------------------------------|


2 guitars play now
|---------------------------|
|--10---11--13--15----------|
|---------------------------|
|---4----5---7---8----2-----|
|---------------------0-----|
|---------------------------|

|----------------------------------------------------------------------------|
|-11---11p10-----------13--13p11p10-------15--15p13p11--------10---11\\-------|
|-------------12--12-----------------11-------------------12-----------------|
|----------------------------------------------------------------------------|
|----------------------------------------------------------------------------|
|----------------------------------------------------------------------------|

chorus
|-------------------------------------------------------------------------|
|-------------------------------------------------------------------------|
|--------10-7---10-------10-------10-------10-------10-------10--------7--|
|-5///12------0----12--0----12--0----12--0----12--0----12--0----12--0-----|
|-------------------------------------------------------------------------|
|-------------------------------------------------------------------------|

|-------------------------------------------------------------------------|
|-------------------------------------------------------------------------|
|--------7--------5-------10-7---10------10------10--------10-------10--7-|
|--9--0-----9--0----7--0-------0----12-0----12-0----12--0-----12--0-------|
|-------------------------------------------------------------------------|
|-------------------------------------------------------------------------|

|------------------------------------------------------------------------------------|
|------------------------------------------------------------------------------------|
|----10--------10--7-----12---------14---0//7-10-7---10------10------10------10------|
|-0------12--0--------0------14--0-----------------0----12-0----12-0----12-0----0-0--|
|------------------------------------------------------------------------------------|
|------------------------------------------------------------------------------------|

|-----------------------------------------------------------------------------------|
|-----------------------------------------------------------------------------------|
|-10-10-------10------10-------14------10-------------------------------------------|
|-------12-0-----12-0-----12-0----12-0--------3---------------5---------------------|
|------------------------------------------0--1---------------3---------------------|
|-----------------------------------------------------------------------------------|

there is just a simple chord sequence after this which ir really easy to pick up
hope you enjoy playing this as much as i did writing it

IF ANYONE WANTS TO RIP MY TAB AND POST IT ANYWHERE ELSE THEN PLEASE SEND ME AND E-MAIL GIVING
ME CREDIT FOR WRITING THE TAB

PLEASE RATE





Comments


Popular Iron Maiden tabs & chords
Dance Of Death 2 Bass Tabs
2 Am 3 Tabs
Fear Of The Dark 5 Tabs
Infinite Dreams Intro Tabs
Losfer Words 2 Tabs
Montsegur 1 Tabs
Mother Of Mercy Tabs
Out Of The Silent Planet 1 Tabs
Powerslave 2 Tabs
The Unbeliever 1 Tabs


Song lyrics



↑ Back to top | Tablatures and chords are parodies/interpretations of the original songs. You may use it for private study, scholarship, research or language learning purposes only
© 2014 AZChords.com Contact us | Privacy policy | DMCA | Add/correct tabs | Request tabs | Top 50 tabs