>
 >
Losfer Words 2

Losfer Words 2 Guitar Tabs

Iron Maiden - Losfer Words 2 chords, tabs, tablatures, lyrics

Guitar lessons | Add/correct | Request | Top 50 tabs Artists:  A B C D E F G H I J K L M N O P Q R S T U V W X Y Z 0-9

Losfer Words 2 Guitar Tabs – Iron Maiden

CD, Sheet music, Poster

Do you like Losfer Words 2? Share with your friends now
Bass TabsBass Tabs v2Drum TabsTabsTabs v2Tabs v3
Iron Maiden - Losfer Words (Big ‘Orra)

One of Maiden’s best instrumentals! I even have the solo! Contact me at@

Tablature legend:
~     - vibrato
?(?)  - bend (to what is in the brackets)
H     - harmonic
p     - pull-off
h     - hammer-on
PM|-| - palm mute
/     - slide up
\     - slide down
x     - mute

Intro:

GtrI & II
e|-----------------------------------------------------|
B|-----------------------------------------------------|
G|-----------------------------------------------------|
D|-----------------------------------------------------|
A|-0-0-0-12-0-0-10-0-0-9-0-0--10-0-0-9-0-0-7-0-0-3-2-3-|
E|-----------------------------------------------------|
PM|---------------------------------------------------|

e|------------------------------------------------|
B|------------------------------------------------|
G|------------------------------------------5-5-5-|
D|------------------------------------------5-5-5-| Repeat again
A|-0-0-0-12-0-0-10-0-0-9-0-0--10-0-0-9-0-0--3-3-3-|
E|------------------------------------------------|
PM|---------------------------------------|

e|---------------------------------------------------------------|
B|---------------------------------------------------------------|
G|---------------------------------------------------------------|
D|---------------------------------------------------------------|
A|-------------5-5-5---------------------------------------5-5-5-|
E|-0-0-0-0-0-0-3-3-3--0-0-0-0-0-0-5-5-5-5-3-2-0--0-0-0-0-0-3-3-3-|
PM|-----------|      |------------------------------------|

e|--------------------------|
B|--------------------------|
G|--------------------------|
D|--------------14-14-14-14-| Repeat again
A|--------------12-12-12-12-|
E|-0-0-0-0-0-0--------------|
Pm|-----------||-----------|*  - strum between the 22th & 24th frets (no palm mutation)

Repeat all the above

Interlude I:

  GtrI
e|-----/12-12-13-15-13-12------14-14-14-15-15-15-17-17-17-17-15-14----------------------|
B|-/13~-------------------15~--------------------------------------16~\11~-11-13-15-13~-|
G|--------------------------------------------------------------------------------------|
D|--------------------------------------------------------------------------------------|
A|--------------------------------------------------------------------------------------|
E|--------------------------------------------------------------------------------------|
 | GtrII
e|-------------------------------------------------------------------------------------|
B|---------------------------------------------------------------/11~------------------|
G|------/5-5-7-9-7-5-----------7-7-7-9-9-9-11-11-11-11-9-7------------10~-10-12-14-12~-|
D|-------------------------------------------------------------------------------------|
A|-/7~-------------------/9~-----------------------------------------------------------|
E|-------------------------------------------------------------------------------------|

Repeat interlude

Bridge:

GtrI & II
e|---------------------------------------------|
B|---------------------------------------------|
G|---------------------------------------------|
D|-5p4p0-5p4p0-5p4p0-5p4p0-5p4p0-5p4p0-5p4p0-0-|
A|---------------------------------------------|
E|---------------------------------------------|

e|--------------------------------------------------------------|
B|--------------------------------------------------------------|
G|--------------------------------------------------------------|
D|-7p5p0-7p5p0-7p5p0-7p5p0-7p5p0-7p5p0-7p5p0-0--8---3--3-5-7-5--| Repeat again
A|----------------------------------------------6---1--1-3-5-3--|
E|--------------------------------------------------------------|

  GtrI
e|----------------------------------------------|
B|----------------------------------------------|
G|----------------------------------------------|
D|-5p4p0-5p4p0-5p4p0-5p4p0-5p4p0-5p4p0-5p4p0--0-|
A|----------------------------------------------|
E|----------------------------------------------|
 |GtrII
e|----------------------------------------------|
B|----------------------------------------------|
G|----------------------------------------------|
D|-7--------------------------------------------|
A|-5--------------------------------------------|
E|----------------------------------------------|

e|----------------------------------------------|
B|----------------------------------------------|
G|----------------------------------------------|
D|-7p5p0-7p5p0-7p5p0-7p5p0-7p5p0-7p5p0-7p5p0--0-|
A|----------------------------------------------|
E|----------------------------------------------|
 |
e|----------------------------------------------|
B|----------------------------------------------|
G|----------------------------------------------|
D|-5--------------------------------------------|
A|-3--------------------------------------------|
E|----------------------------------------------|

e|----------------------------------------------|
B|----------------------------------------------|
G|----------------------------------------------|
D|-5p4p0-5p4p0-5p4p0-5p4p0-5p4p0-5p4p0-5p4p0--0-|
A|----------------------------------------------|
E|----------------------------------------------|
 |
e|----------------------------------------------|
B|----------------------------------------------|
G|----------------------------------------------|
D|----------------------------------------------|
A|-7--------------------------------------------|
E|-5--------------------------------------------|

e|----------------------------------------------|
B|----------------------------------------------|
G|----------------------------------------------|
D|-7p5p0-7p5p0-7p5p0-7p5p0-7p5p0-7p5p0-7p5p0--0-|
A|----------------------------------------------|
E|----------------------------------------------|
 |
e|----------------------------------------------|
B|----------------------------------------------|
G|----------------------------------------------|
D|----------------------------------------------|
A|-3---------------5----------------------------|
E|-1---------------3----------------------------|

GtrI repeats it’s bridge (x2) over the solo by GtrII

Solo I:

 Gtr II
e|------------------------------------------|
B|------------------------------------------|
G|---/7-0h5-0h4-0h5-0h4-0h2-0h4-------------|
D|-0----------------------------5p3---3-----|
A|----------------------------------5-------|
E|--------------------------------------3~~-|

e|----------------------------------|
B|---7(8)~(8)~-5---5----------------|
G|-5-------------7---7p5---5-----5~-|
D|-----------------------7---5h7----|
A|----------------------------------|
E|----------------------------------|
                H  H H
e|-------10-8-7-10-8-7-5----|
B|-/8-10-----------------3~-|
G|--------------------------|
D|--------------------------|
A|--------------------------|
E|--------------------------|

e|-------------------------------------------------------------|
B|---------------------8------8-10----8-10-12-10-13~~~~~~--13~-|
G|------7-10-7----7-10---10-7------10------------12(14)~~------|
D|-7-10--------10----------------------------------------------|
A|-------------------------------------------------------------|
E|-------------------------------------------------------------|

e|----------------------------------------------------------------|
B|---------------15p13p12-----------------------------------------|
G|-12—10~-----------------14p13p12----------12-14-12p10----10-----|
D|--------12--12-------------------15p14p12-------------12----12~-|
A|----------------------------------------------------------------|
E|----------------------------------------------------------------|

e|-/15h17p15h17p15h17p15-/15h17p15h17p15h17p15-/15h17p15h17p15h17p15-15~-|
B|-----------------------------------------------------------------------|
G|-----------------------------------------------------------------------|
D|-----------------------------------------------------------------------|
A|-----------------------------------------------------------------------|
E|-----------------------------------------------------------------------|

e|---------------------------------------------------|
B|-/20-18----18--------------------------------------|
G|--------21----21-19-17-19-17----17-----------------|
D|-----------------------------21----21-19-17-19—----|
A|-----------------------------------------------19~-|
E|---------------------------------------------------|End Solo

Solo II:

  GtrI
e|-12-0-0-0-7-0-0-0-8-0-0-0-5-0-0-0-7-0-0-0-3-0-0-0-5-0-0-0-2-0-0-0-|
B|------------------------------------------------------------------|
G|------------------------------------------------------------------|
D|------------------------------------------------------------------|
A|------------------------------------------------------------------|
E|------------------------------------------------------------------|
 |Gtr II                                                               (x8)
e|------------------------------------------------------------------|
B|------------------------------------------------------------------|
G|-9-9-9-9---------5-5-5-5------------------------------------------|
D|---------9-9-9-9---------7-7-7-7-9-9-9-9-5-5-5-5-7-7-7-7----------|
A|---------------------------------------------------------9-9-9-9--|
E|------------------------------------------------------------------|End Solo

Solo III:

 Gtr II
e|-------------------------------------------|
B|-10(11)-10~-8-10-8----10(11)-10~-8-10-8----|
G|-------------------8~-------------------8~-|
D|-------------------------------------------|
A|-------------------------------------------|
E|-------------------------------------------|
 |Gtr I
e|----------------------------------------------------------------------------|
B|----------------------------------------------------------------------------|
G|----------------------------------------------------------------------------|
D|-8-8-x-8-8-x-8-8--8-8-8-8-8-8-8-8-8-8--8-8-x-8-8-x-8-8--8-8-8-8-8-8-8-8-8-8-|
A|-6-6-x-6-6-x-6-6--6-6-6-6-6-6-6-6-6-6--6-6-x-6-6-x-6-6--6-6-6-6-6-6-6-6-6-6-|
E|----------------------------------------------------------------------------|
                 PM|-------------------|                 |-------------------|

e|-------------------------------------------------|
B|-11(13)-11~-10-11-10-----11(13)-11~-10-11-10-----|
G|---------------------10~---------------------10~-|
D|-------------------------------------------------|
A|-------------------------------------------------|
E|-------------------------------------------------|
 |
e|--------------------------------------------------------------------------------|
B|--------------------------------------------------------------------------------|
G|--------------------------------------------------------------------------------|
D|-10-10x-10-10x-101010101010101010101010--10-10x-10-10x-101010101010101010101010-|
A|-8--8-x-8--8-x-8-8-8—8-8-8-8—8—8-8-8-8---8--8-x-8--8-x-8-8-8-8-8-8-8-8-8-8-8-8--|
E|--------------------------------------------------------------------------------|
              PM|------------------------|              |------------------------|

e|-------------------------------------------|
B|-10(11)-10~-8-10-8----10(11)-10~-8-10-8----|
G|-------------------8~-------------------8~-|
D|-------------------------------------------|
A|-------------------------------------------|
E|-------------------------------------------|
 | 
e|----------------------------------------------------------------------------|
B|----------------------------------------------------------------------------|
G|----------------------------------------------------------------------------|
D|-8-8-x-8-8-x-8-8--8-8-8-8-8-8-8-8-8-8--8-8-x-8-8-x-8-8--8-8-8-8-8-8-8-8-8-8-|
A|-6-6-x-6-6-x-6-6--6-6-6-6-6-6-6-6-6-6--6-6-x-6-6-x-6-6--6-6-6-6-6-6-6-6-6-6-|
E|----------------------------------------------------------------------------|
                 PM|-------------------|                 |-------------------|

e|---------------------------------------------11(13)~-|
B|-11(13)-11~-10-11-10-----11(13)-11~-10-11-10---------|
G|---------------------10~-----------------------------|
D|-----------------------------------------------------|
A|-----------------------------------------------------|
E|-----------------------------------------------------|
 |
e|--------------------------------------------------------------------------------|
B|--------------------------------------------------------------------------------|
G|--------------------------------------------------------------------------------|
D|-10-10x-10-10x-101010101010101010101010--10-10x-10-10x-101010101010101010101010-|
A|-8--8-x-8--8-x-8-8-8—8-8-8-8—8—8-8-8-8---8--8-x-8--8-x-8-8-8-8-8-8-8-8-8-8-8-8--|
E|--------------------------------------------------------------------------------|
              PM|------------------------|              |------------------------|

Play intro(x1)

Interlude II:

  GtrI
e|-----/12-12-13-15-13-12------14-14-14-15-15-15-17-17-17-17-15-14----------------------|
B|-/13~-------------------15~--------------------------------------16~\11~-11-13-15-13~-|
G|--------------------------------------------------------------------------------------|
D|--------------------------------------------------------------------------------------|
A|--------------------------------------------------------------------------------------|
E|--------------------------------------------------------------------------------------|
 | GtrII
e|-------------------------------------------------------------------------------------|
B|---------------------------------------------------------------/11~------------------|
G|------/5-5-7-9-7-5-----------7-7-7-9-9-9-11-11-11-11-9-7------------10~-10-12-14-12~-|
D|-------------------------------------------------------------------------------------|
A|-/7~-------------------/9~-----------------------------------------------------------|
E|-------------------------------------------------------------------------------------|

  Gtr I
e|-12-15p13p12-12-15p13p12-12-15p13p12-12-15p13p12-|
B|-------------------------------------------------|
G|-------------------------------------------------|
D|-------------------------------------------------|
A|-------------------------------------------------|
E|-------------------------------------------------|

  GtrI
e|-----/12-12-13-15-13-12------14-14-14-15-15-15-17-17-17-17-15-14----------------------|
B|-/13~-------------------15~--------------------------------------16~\11~-11-13-15-13~-|
G|--------------------------------------------------------------------------------------|
D|--------------------------------------------------------------------------------------|
A|--------------------------------------------------------------------------------------|
E|--------------------------------------------------------------------------------------|
 | GtrII
e|-------------------------------------------------------------------------------------|
B|---------------------------------------------------------------/11~------------------|
G|------/5-5-7-9-7-5-----------7-7-7-9-9-9-11-11-11-11-9-7------------10~-10-12-14-12~-|
D|-------------------------------------------------------------------------------------|
A|-/7~-------------------/9~-----------------------------------------------------------|
E|-------------------------------------------------------------------------------------|

Outro:

  Gtr I
e|---------------------------------------------|
B|-5-3-------3-5-3-------3-5-3-------3-5-3-----|
G|-----5-3-5-------5-3-5-------5-3-5-------5-3-|
D|---------------------------------------------|
A|---------------------------------------------|
E|---------------------------------------------|
 |Gtr II
e|---------------------------------------------|
B|-1-----------1-----------1-----------1-------|
G|---3-2-0-2-3---3-2-0-2-3---3-2-0-2-3---3-2-0-|
D|---------------------------------------------|
A|---------------------------------------------|
E|---------------------------------------------|End

Enjoy!





Comments


Popular Iron Maiden tabs & chords
Blood Brothers 2 Bass Tabs
Pilgrim Bass Tabs
The Wickerman Bass Tabs
Aces High 11 Tabs
Be Quick Or Be Dead 1 Tabs
Brighter Than A Thousand Suns Tabs
Charlotte In The Harlot Tabs
Genghis Kahn 1 Tabs
Mesugga Tabs
Run To The Hills 1 Tabs


Song lyrics



↑ Back to top | Tablatures and chords are parodies/interpretations of the original songs. You may use it for private study, scholarship, research or language learning purposes only
© 2014 AZChords.com Contact us | Privacy policy | DMCA | Add/correct tabs | Request tabs | Top 50 tabs