>
 >
Losfer Words

Losfer Words Bass Tabs

Iron Maiden - Losfer Words chords, tabs, tablatures, lyrics

Guitar lessons | Add/correct | Request | Top 50 tabs Artists:  A B C D E F G H I J K L M N O P Q R S T U V W X Y Z 0-9

Losfer Words Bass Tabs – Iron Maiden

CD, Sheet music, Poster

Do you like Losfer Words? Share with your friends now
Bass TabsBass Tabs v2Drum TabsTabsTabs v2Tabs v3
Intro/main riff     (repeat all)x2
G-----------------------------------------------------|
D--------------7----5----4----5----4------------------|
A-0-12/--0-0-0--0-0--0-0--0-0--0-0--0-0--7-0-0--3-2-3-|
E-----------------------------------------------------|
                                                  x2
G---------------------------------------|
D-------7----5----4----5----4-----------|
A-0-0-0--0-0--0-0--0-0--0-0--0-0--3-3-3-|
E---------------------------------------|

G----------------------------------------------|
D----------------------------------------------|
A----------------------------------------------|
E-0-0-0-0-0-0--3-3-3--0-0-0-0-0-0--5-5-5-5-3-2-|
                                             x2
G-----------------------------------------|
D---------------------------------7-7-7-7-|
A-----------------------------------------|
E-0-0-0-0-0-0--3-3-3--0-0-0-0-0-0---------|

2nd riff
G-------------------------------------------------------------------|
D--------------------------------------------------444-555-7777-5-4-|
A-3--3-3333--3-3333--3-3333--3-333-5-5-5555--5-555------------------|
E-------------------------------------------------------------------|

G--------------------------------------------------------555-3-2-|
D-------------------------------------------------333-555--------|
A-6--6-6666--6-666--1--1-111-1-3-5-3-3-3333--3-333---------------|
E----------------------------------------------------------------|

G------------------------------------------------------------------|
D-------------------------------------------------444-555-7777-5-4-|
A-3--3-3333--3-3333--3-3333--3-333-5-5-5555--5-555-----------------|
E------------------------------------------------------------------|

G----------------------------------------------------------------|
D----------------------------------------------------------------|
A-6--6-6666--6-666--1--1-111-1-3-5-3-3-3333--3-3333--3-333-------|
E----------------------------------------------------------------|

riff 3 x2
G--------------------------------------------------------|
D-5-4-0--5-4-0--5-4-0--5-4-0--5-4-0--5-4-0--5-4-0--5-4-0-|
A--------------------------------------------------------|
E--------------------------------------------------------|

G--------------------------------------------------------|
D-7-5-0--7-5-0--7-5-0--7-5-0--7-5-0--7-5-0--7-5-0--7-5-0-|
A--------------------------------------------------------|
E--------------------------------------------------------|

G---------------------------------------------------|
D---------------------------------------------------|
A-666666666666/1111111-3-5-333333333333333333333333-|
E---------------------------------------------------|

riff 4 x4
G--------------------------------------------------------|
D-5-4-0--5-4-0--5-4-0--5-4-0--5-4-0--5-4-0--5-4-0--5-4-0-|
A--------------------------------------------------------|
E--------------------------------------------------------|

G--------------------------------------------------------|
D-7-5-0--7-5-0--7-5-0--7-5-0--7-5-0--7-5-0--7-5-0--7-5-0-|
A--------------------------------------------------------|
E--------------------------------------------------------|

G--------------------------------------------------------|
D-5-4-0--5-4-0--5-4-0--5-4-0--5-4-0--5-4-0--5-4-0--5-4-0-|
A--------------------------------------------------------|
E--------------------------------------------------------|

G---------------------------------------------------|
D-7-5-0--7-5-0--7-5-0---7---7-5-0--7-5-0--7-5-0--7--|
A---------------------------------------------------|
E---------------------------------------------------|

riff 5 x2
G-----------------------------------------------------------------------|
D-------------------9-----------------------------------9---------------|
A----------10-10-10---10-9--12-10-9------------10-10-10---10-9--9-10-12-| x2
E-12-12-12----------------------------12-12-12--------------------------|

G-----------------------------------------------------------------------|
D----------------10-10-10-10-8------------------------12-12-12-12-10----|
A-------10-10-10--------------10-------------12-12-12----------------12-|
E-8-8-8-----------------------------10-10-10----------------------------|

riff 7
G----------------------------------------------------------------|
D----------------------------------------------------------------|
A-6-6--6-6-6-6--6-6-6-6--66666666---6-6--6-6-6-6--66666666666666-|
E----------------------------------------------------------------|

G-----------------------------------------------------10(x12)-|
D-------------------------------------------------------------|
A-8-8--8-8-8-8--8-8-8-8--88888888---8-8--8-8-8-8--8-8---------|
E-------------------------------------------------------------|

G----------------------------------------------------------------|
D----------------------------------------------------------------|
A-6-6--6-6-6-6--6-6-6-6--66666666---6-6--6-6-6-6--66666666666666-|
E----------------------------------------------------------------|

G---------------------------------------------------------------777-888-|
D-----------------------------------------------------888-101010--------|
A-8-8--8-8-8-8--8-8-8-8--88888888---8-8--8-8-8-8--8-8-------------------|
E-----------------------------------------------------------------------|

main riff x2

ending
G-------------------------------------------------------------------|
D--------------------------------------------------444-555-7777-5-4-|
A-3--3-3333--3-3333--3-3333--3-333-5-5-5555--5-555------------------|
E-------------------------------------------------------------------|

G--------------------------------------------------------555-3-2-|
D-------------------------------------------------333-555--------|
A-6--6-6666--6-666--1--1-111-1-3-5-3-3-3333--3-333---------------|
E----------------------------------------------------------------|

G------------------------------------------------------------------|
D-------------------------------------------------444-555-7777-5-4-|
A-3--3-3333--3-3333--3-3333--3-333-5-5-5555--5-555-----------------|
E------------------------------------------------------------------|

G-------------------------------------555---555---555---555-|
D-----------------------------------------------------------|
A-6--6-6666--6-666--1--1-111-1-3-5-333---333---333---333----|
E-----------------------------------------------------------|

G----555---555---555----5-|
D-------------------------|
A-333---333---333---333---|
E-------------------------|





Comments


Popular Iron Maiden tabs & chords
Fear Of The Dark 2 Bass Tabs
Hallowed Be Thy Name 4 Bass Tabs
Man On The Edge Bass Tabs
The Number Of The Beast 2 Bass Tabs
2 Am Tabs
Can I Play With Madness 2 Tabs
Caught Somewhere In Time 4 Tabs
Flight Of Icarus 2 Tabs
Fortunes Of War 1 Tabs
Lord Of The Flies Tabs


Song lyrics



↑ Back to top | Tablatures and chords are parodies/interpretations of the original songs. You may use it for private study, scholarship, research or language learning purposes only
© 2014 AZChords.com Contact us | Privacy policy | DMCA | Add/correct tabs | Request tabs | Top 50 tabs