>
 >
Lightning Strikes Twice

Lightning Strikes Twice Guitar Tabs

Iron Maiden - Lightning Strikes Twice chords, tabs, tablatures, lyrics

Guitar lessons | Add/correct | Request | Top 50 tabs Artists:  A B C D E F G H I J K L M N O P Q R S T U V W X Y Z 0-9

Lightning Strikes Twice Guitar Tabs – Iron Maiden

CD, Sheet music, Poster

Do you like Lightning Strikes Twice? Share with your friends now
Bass TabsTabsTabs v2

--------------------------------------------------------
             ----------Iron Maiden - Lightning Strikes Twice---------
             --------------------------------------------------------


|---------------------------|---------------------------|
|---------------------------|---------------------------|
|4--4-7-4--4-7-9--7-9-11-9-7|4--4-7-4--4-7-9--7-9-11-9-7|
|---------------------------|---------------------------|
|---------------------------|---------------------------|
|---------------------------|---------------------------|

|---------------------------|---------------------------|
|---------------------------|---------------------------|
|4--4-6-7--4-6-7--4-6-7--6-2|4-6-7--4-6-9--7--4--6------|
|---------------------------|---------------------------|
|---------------------------|---------------------------|
|---------------------------|---------------------------|

|---------------------------|---------------------------|
|---------------------------|---------------------------|
|4--4-6-7--4-6-7--4-6-9--7-2|4--4-6-7--4-6-9-7--9/11--11|
|---------------------------|---------------------------|
|---------------------------|---------------------------|
|---------------------------|---------------------------|

|-----7------3------0------2-|
|----7------3------0------2--|
|---7------3------0------2---|
|--9------5------2------4----| 
|-9------5------2------4-----|
|7------3------0------2------|x4

|----------------------------------------|
|----------------------------------------|
|----------------------------------------|
|9-9-9-9-9-5-5-5-5-5-2-2-2-2-2-4-4-4-4-4-| 
|9-9-9-9-9-5-5-5-5-5-2-2-2-2-2-4-4-4-4-4-|
|7-7-7-7-7-3-3-3-3-3-0-0-0-0-0-2-2-2-2-2-|x4

|---------------------------|-------------------------|
|---------------------------|-------------------------|
|4--11-9-7--7-6-4--4-2-0----|4--11-9-7--7-6-4--4-2-0--|
|------------------------4--|------------------------4|
|---------------------------|-------------------------|
|---------------------------|-------------------------|

|---------------------------|-------------------------|
|---------------------------|-------------------------|
|4--11-9-7--7-6-4--4-2-0----|4--11-9-7--7-6-4--4-2-0--|
|------------------------4-2|------------------------4|
|---------------------------|-------------------------|
|---------------------------|-------------------------|

|----------------------------------------|
|----------------------------------------|
|----------------------------------------|
|9-9-9-9-9-5-5-5-5-5-2-2-2-2-2-4-4-4-4-4-| 
|9-9-9-9-9-5-5-5-5-5-2-2-2-2-2-4-4-4-4-4-|
|7-7-7-7-7-3-3-3-3-3-0-0-0-0-0-2-2-2-2-2-|x4

|----------------------------------------|-------------|
|----------------------------------------|-------------|
|----------------------------------------|-------------|
|9-9-7--9--9-9-9-7-9--9--9-9-9-7-9--9--9-|-5-5-5--2-2-2|
|9-9-7--9--9-9-9-7-9--9--9-9-9-7-9--9--9-|-5-5-5--2-2-2|
|7-7-5--7--7-7-7-5-7--7--7-7-7-5-7--7--7-|-3-3-3--0-0-0|x4

|-----------------------------|
|-----------------------------|
|-----------------------------|
|7-7-5-7--7--7--5-5-5--2-2-2--|
|7-7-5-7--7--7--5-5-5--2-2-2--|
|5-5-3-5--5--5--3-3-3--0-0-0--|

|----------------------------------------|
|----------------------------------------|
|----------------------------------------|
|9-9-7--9--9-9-9-7-9--9--9-9-9-7-9--9--9-|
|9-9-7--9--9-9-9-7-9--9--9-9-9-7-9--9--9-|
|7-7-5--7--7-7-7-5-7--7--7-7-7-5-7--7--7-|

|--------------------------|-------------------------|
|--------------------------|-------------------------|
|--------------------------|-------------------------|
|5--5-5-5-5-5--2--2-2-2-2-2|9-9-7--9--9-9-9-7-9--9--9|
|5--5-5-5-5-5--2--2-2-2-2-2|9-9-7--9--9-9-9-7-9--9--9|
|3--3-3-3-3-3--0--0-0-0-0-0|7-7-5--7--7-7-7-5-7--7--7|

|----------------------------------------|-------------|
|----------------------------------------|-------------|
|----------------------------------------|-------------|
|9-9-7--9--9-9-9-7-9--9--9-9-9-7-9--9--9-|-5-5-5--2-2-2|
|9-9-7--9--9-9-9-7-9--9--9-9-9-7-9--9--9-|-5-5-5--2-2-2|
|7-7-5--7--7-7-7-5-7--7--7-7-7-5-7--7--7-|-3-3-3--0-0-0|x2

|-----------------------------|
|-----------------------------|
|-----------------------------|
|7-7-5-7--7--7--5-5-5--2-2-2--|
|7-7-5-7--7--7--5-5-5--2-2-2--|
|5-5-3-5--5--5--3-3-3--0-0-0--|

|----------------------------------------|
|----------------------------------------|
|----------------------------------------|
|9-9-7--9--9-9-9-7-9--9--9-9-9-7-9--9--9-|
|9-9-7--9--9-9-9-7-9--9--9-9-9-7-9--9--9-|
|7-7-5--7--7-7-7-5-7--7--7-7-7-5-7--7--7-|

|--------------------------|-------------------------|
|--------------------------|-------------------------|
|--------------------------|-------------------------|
|5--5-5-5-5-5--2--2-2-2-2-2|9-9-7--9--9-9-9-7-9--9--9|
|5--5-5-5-5-5--2--2-2-2-2-2|9-9-7--9--9-9-9-7-9--9--9|
|3--3-3-3-3-3--0--0-0-0-0-0|7-7-5--7--7-7-7-5-7--7--7|

|----------------------------------------------|
|----------------------------------------------|
|----------------------------------------------|
|5--5-5-5-5-5--2--2-2-2-2-2--4--4--4--4--4--4-4|
|5--5-5-5-5-5--2--2-2-2-2-2--4--4--4--4--4--4-4|
|3--3-3-3-3-3--0--0-0-0-0-0--2--2--2--2--2--2-2|

|-----------------|
|-----------------|
|12--10--7--5--3p0|
|-----------------|
|-----------------|
|-----------------|x9

|--------------------|
|--------------------|
|12--10--7--5--5h7/12|
|--------------------|
|--------------------|
|--------------------|

|----------------------------------------|-------------|
|----------------------------------------|-------------|
|----------------------------------------|-------------|
|9-9-7--9--9-9-9-7-9--9--9-9-9-7-9--9--9-|-5-5-5--2-2-2|
|9-9-7--9--9-9-9-7-9--9--9-9-9-7-9--9--9-|-5-5-5--2-2-2|
|7-7-5--7--7-7-7-5-7--7--7-7-7-5-7--7--7-|-3-3-3--0-0-0|x4

|-----------------------------|
|-----------------------------|
|-----------------------------|
|7-7-5-7--7--7--5-5-5--2-2-2--|
|7-7-5-7--7--7--5-5-5--2-2-2--|
|5-5-3-5--5--5--3-3-3--0-0-0--|

|----------------------------------------|-------------|
|----------------------------------------|-------------|
|----------------------------------------|-------------|
|9-9-7--9--9-9-9-7-9--9--9-9-9-7-9--9--9-|-5-5-5--2-2-2|
|9-9-7--9--9-9-9-7-9--9--9-9-9-7-9--9--9-|-5-5-5--2-2-2|
|7-7-5--7--7-7-7-5-7--7--7-7-7-5-7--7--7-|-3-3-3--0-0-0|

|----------------------------------------|
|----------------------------------------|
|----------------------------------------|
|9-9-7--9--9-9-9-7-9--9--9-9-9-7-9--9--9-|
|9-9-7--9--9-9-9-7-9--9--9-9-9-7-9--9--9-|
|7-7-5--7--7-7-7-5-7--7--7-7-7-5-7--7--7-|

|-----------------------------|
|-----------------------------|
|6-7-9-7-6-4----6-7-9-7-6-4--4|
|-----------------------------|
|-----------------------------|
|-----------------------------|x4

|--------------------------|-------------------------|
|--------------------------|-------------------------|
|--------------------------|-------------------------|
|5--5-5-5-5-5--2--2-2-2-2-2|9-9-7--9--9-9-9-7-9--9--9|
|5--5-5-5-5-5--2--2-2-2-2-2|9-9-7--9--9-9-9-7-9--9--9|
|3--3-3-3-3-3--0--0-0-0-0-0|7-7-5--7--7-7-7-5-7--7--7|

|----------------------------------------------|
|----------------------------------------------|
|----------------------------------------------|
|5--5-5-5-5-5--2--2-2-2-2-2--4--4--4--4--4--4-4|
|5--5-5-5-5-5--2--2-2-2-2-2--4--4--4--4--4--4-4|
|3--3-3-3-3-3--0--0-0-0-0-0--2--2--2--2--2--2-2|

|-----------------|
|-----------------|
|12--10--7--5--3p0|
|-----------------|
|-----------------|
|-----------------|x9

|--------------------|
|--------------------|
|12--10--7--5--5h7/12|
|--------------------|
|--------------------|
|--------------------|

|-------------------------------------------------|
|-------------------------------------------------|
|-------------------------------------------------|
|9-9-7-9--9--9-9-9-7-9--9--9-9-9-7-9--9--9-9-9-7-9|
|9-9-7-9--9--9-9-9-7-9--9--9-9-9-7-9--9--9-9-9-7-9|
|7-7-5-7--7--7-7-7-5-7--7--7-7-7-5-7--7--7-7-7-5-7|





Comments


Popular Iron Maiden tabs & chords
Hooks In You Bass Tabs
Sing Of The Cross Bass Tabs
Bring Your Daughter 1 Tabs
Communication Breakdown Tabs
Different World Tabs
Fear Of The Dark Live 1 Tabs
Iron Maiden Tabs
Judgement Of Heaven Tabs
Number Of The Beast Tabs
Remember Tomorrow 1 Tabs


Song lyrics



↑ Back to top | Tablatures and chords are parodies/interpretations of the original songs. You may use it for private study, scholarship, research or language learning purposes only
© 2014 AZChords.com Contact us | Privacy policy | DMCA | Add/correct tabs | Request tabs | Top 50 tabs