» » »

Iron Maiden, Judgement Of Heaven Bass tabs (ver.1)

Artists:  A B C D E F G H I J K L M N O P Q R S T U V W X Y Z # 

Judgement Of Heaven Bass tabs (ver.1)

Iron Maiden Tabs
Rating:
0/5 (0 votes)
Judgement Of Heaven lessons Tabs too difficult? Try these video lessons and learn fast
                intro,first part   (6 times)        h = marteau

-9999999--9--9--9--9--9--9--9--11-11-11-11-11-11--888-999-888h9--------|
-9999999-11-11-11-11-11-11-11---9--9--9--9--9--9--999-999-9999---------|   6x
-----------------------------------------------------------------------|
-----------------------------------------------------------------------|
intro,second part  (1 time)

-7777777--6666666--9999999--8888888--7777777--666-777-6--44444444444444----|   1x
-7777777--7777777--9999999--9999999--7777777--777-777-7--44444444444444----|
---------------------------------------------------------------------------|
---------------------------------------------------------------------------|

verse1             (4 times)

----------------------------------------------|
----------------------------------------------|
-9999999----6666666----444444444444444--------|
----------------------------------------------|

verse2             (1 time)

----------------------------------------------------------------------|
----------------------------------------------------------------------|
-------------------------------------7777777--666-4-2--999999999999---|
-5555555--0000000--7777777--2222222-----------------------------------|

verse3             (2 times)

----------------------------------------------------------------------------|
----------------------------------------------------------------------------|
-99999999999999--5555555--7777777--999999999999999--5555555-----------------|
-----------------------------------------------------------5555555--0000000-|

vere4,part one              (2 times) all of my life...
------------------------------------------------|
------------------------------------------------|
-9999999----5555555-----------------------------|
-----------------------5555555----7777777-------|

verse4,part two             (1 time)  wating for me...

------------------------------------------------------------|
---------------------------------------222222222222222------|
-222222222222222----555555555555555-------------------------|
------------------------------------------------------------|

brigde and song with solo
---------22----------------------22--0-------|
-22--55------55--2-0-2---22--55--------0-2---|
            
Submit corrections

comments powered by Disqus
↑ Back to top | Iron Maiden Bass for Judgement Of Heaven. Lyrics for acoustic guitar and electric guitar. Tablatures and chords are parodies/interpretations of the original songs. You may use it for private study, scholarship, research or language learning purposes only