» » »

Iron Maiden, Judgement Day Tabs (ver.1)

Artists:  A B C D E F G H I J K L M N O P Q R S T U V W X Y Z # 

Judgement Day Tabs (ver.1)

Iron Maiden Tabs
Rating:
0/5 (0 votes)
Judgement Day lessons Tabs too difficult? Try these video lessons and learn fast
                song from single Maiden
INTRO:

|------------------------------------------------------------------------------|
|------------------------------------------------------------------------------|
|------------------------------------------------------------------------------|
|--3--2--0--2---0--------------------------------------------------------------|
|------------------3--5--3--2--3--2--------------------------------------------|
|------------------------------------3-----------------------------------------|

|------------------------------------------------------------------------------|
|------------------------------------------------------------------------------|
|--------------------4--5--------0--2------------------------------------------|
|--------2--3--------------------------3--3--3--3--2--0------------------------|
|--0--0--------0--0--------0--0------------------------------------------------|
|------------------------------------------------------------------------------|

                   _________ ________
 A5     C5    B5   |1.  D5   |2. G5
|------------------|---------|-------------------------------------------------|
|------------------|---------|-------------------------------------------------|
|-2----5------4----|----7----|-------------------------------------------------|
|-2----5------4----|----7----|---5---------------------------------------------|
|-0----3------2----|----5----|---5---------------------------------------------|
|------------------|---------|---3---------------------------------------------|

   B5                        E5   G5   D5   E5
|------------------------------------------------------------------------------|
|------------------------------------------------------------------------------|
|--4--------------------------9---5----7----9----------------------------------|
|--4--------------------------9---5----7----9----------------------------------|
|--2--5--4--5--7--5--4--------7---3----5----7----------------------------------|
|-----------------------5------------------------------------------------------|

    A5   F5   E5   C5  A5   F5   C5   G5
|------------------------------------------------------------------------------|
|------------------------------------------------------------------------------|
|-------10----9-------------10-------------------------------------------------|
|---7---10----9----10--7----10---10----5---------------------------------------|
|---7---8-----7----10--7----8----10----5---------------------------------------|
|---5--------------8---5---------8-----3---------------------------------------|

  A5   A#5   G5   F5
|------------------------------------------------------------------------------|
|------------------------------------------------------------------------------|
|-14---15---12----10-----------------------------------------------------------|
|-14---15---12----10-----------------------------------------------------------|
|-12---13---10----8------------------------------------------------------------|
|------------------------------------------------------------------------------|


|-------------------------------|----------------------------------------------|
|-------------------------------|----------------------------------------------|
|-------------------------------|----------------------------------------------|
|-------------------------------|-3--2--0--2-----0-----------------------------|
|--------2--3--0--2-----0-------|-------------3-----2--------------------------|
|--0--0--------------3-----2--0-|----------------------------------------------|


|------------------------------------------------------------------------------|
|------------------------------------------------------------------------------|
|--------2--3--0--2-----0------------------------------------------------------|
|--0--0--------------3-----2---------------------------------------------------|
|------------------------------------------------------------------------------|
|------------------------------------------------------------------------------|

                     G5  F5
|------------------------------------------------------------------------------|
|------------------------------------------------------------------------------|
|------------------------------------------------------------------------------|
|-----------2--3-----5----3----------------------------------------------------|
|-----0--0-----------5----3----------------------------------------------------|
|--0-----------------3----1----------------------------------------------------|

                F5  A#5
|------------------------------------------------------------------------------|
|------------------------------------------------------------------------------|
|--------2--3-------3----------------------------------------------------------|
|--0--0---------3---3----------------------------------------------------------|
|---------------3---1----------------------------------------------------------|
|---------------1--------------------------------------------------------------|
            

comments powered by Disqus
↑ Back to top | Iron Maiden Tabs for Judgement Day. Lyrics for acoustic guitar and electric guitar. Tablatures and chords are parodies/interpretations of the original songs. You may use it for private study, scholarship, research or language learning purposes only