» » »

Iron Maiden, Judas Be My Guide Bass tabs (ver.1)

Artists:  A B C D E F G H I J K L M N O P Q R S T U V W X Y Z # 

Judas Be My Guide Bass tabs (ver.1)

Iron Maiden Tabs
 Rating:
4/5 (4 votes)
Judas Be My Guide lessons Tabs too difficult? Try these video lessons and learn fast
1
                Judas be my guide by Iron Maiden
ttandard Tuning

(Intro)
G------------------------------------------------------------------|
D------------------------------------------------------------------|
A---5----------------------5---------------------------------------|
E-5----------5-6---------5---------5-6-----6-6-6-6-6-6-3-3-3-3-3-3-|

G-7---------------|-7---------------|-3---------------|-5---------------|
D-7---------------|-7---------------|-3---------------|-5---------------|
A-5-5-5-5-5-5-5-5-|-5-5-5-5-5-5-5-5-|-1-1-1-1-1-1-1-1-|-3-3-3-3-3-3-3-3-|
E-----------------|-----------------|-----------------|-----------------| 

G-7---------------|-7---------------|-3---------------|-5---------------|
D-7---------------|-7---------------|-3---------------|-5---------------|
A-5-5-5-5-5-5-5-5-|-5-5-5-5-5-5-5-5-|-1-1-1-1-1-1-1-1-|-3-3-3-3-3-3-3-3-|
E-----------------|-----------------|-----------------|-----------------|

 Verse x2
G-7---------------|-----------------|-----------------|-3---------------|
D-7---------------|-----------------|-5---------------|-3-------3-------|
A-5-5-5-5-5-5-5-5-|-5-5-5-5-5-5-5-5-|-5---------------|-1-1-1-1-3-------|
E-----------------|-----------------|-3-3-3-3-3-3-3-3-|---------1-1-1-1-|  

(Bridge)
G-----------------|-----------------|-3---------------|-----------------|
D-----------------|---------5-------|-3---------------|-----------------|
A-5---5-5-7---7-7-|-8---8-8---------|-1-1-1-1-1-1-1-1-|-----------------|
E-----------------|-----------------|-----------------|-1-1-------1-1-1-| 

G-----------------|-----------------|-3---------------|-----------------|
D-----------------|---------5-------|-3---------------|-----------------|
A-5---5-5-7---7-7-|-8---8-8---------|-1-1-1-1-1-1-1-1-|-----------------|
E-----------------|-----------------|-----------------|-1-1-1-1-1-1-1-1-| 

(Chorus)
G-7---------------|-7---------------|-3---------------|-5---------------|
D-7---------------|-7---------------|-3---------------|-5---------------|
A-5-5-5-5-5-5-5-5-|-5-5-5-5-5-5-5-5-|-1-1-1-1-1-1-1-1-|-3-3-3-3-3-3-3-3-|
E-----------------|-----------------|-----------------|-----------------|   

G-7---------------|-7---------------|-3---------------|-5---------------|
D-7---------------|-7---------------|-3---------------|-5---------------|
A-5-5-5-5-5-5-5-5-|-5-5-5-5-5-5-5-5-|-1-1-1-1-1-1-1-1-|-3-3-3-3-3-3-3-3-|
E-----------------|-----------------|-----------------|-----------------|

 Repeat Verse, Bridge & Chorus(2x) 

G-7---------------|-7---------------|-3---------------|-3---------------|
D-7---------------|-7---------------|-3---------------|-3---------------|
A-5-5-5-5-5-5-5-5-|-5-5-5-5-5-5-5-5-|-1-1-1-1-1-1-1-1-|-1-1-1-1-1-1---3-|
E-----------------|-----------------|-----------------|-----------------| 

G-7---------------|-7---------------|-----------------|-3---------------|
D-7---------------|-7---------------|-5---------------|-3---------------|
A-5-5-5-5-5-5-5-5-|-5-5-5-5-5-5-5-5-|-5---------------|-1-1-1-1-1-1-1-1-|
E-----------------|-----------------|-3-3-3-3-3-3-3-3-|-----------------|   

G-3---------------|-5---------------|-7---------------|-5---------------|
D-3---------------|-5---------------|-7---------------|-5---------------|
A-1-1-1-1-1-1-1-1-|-3-3-3-3-3-3-3-3-|-5-5-5-5-5-5-5-5-|-3-3-3-3-3-3-3-3-|
E-----------------|-----------------|-----------------|-----------------|  

G-3---------------|-----------------|-----------------|-----------------|
D-3---------------|-5---------------|-----------------|-----------------|
A-1-1-1-1-1-1-1-1-|-3-3-3-3-3-3-3-3-|-00020002002002--|-00020002002002--|
E-----------------|-----------------|-----------------|-----------------|  

(During Solo)
G-7---------------|-7---------------|-3---------------|-3---------------|
D-7---------------|-7---------------|-3---------------|-3---------------|
A-5-5-5-5-5-5-5-5-|-5-5-5-5-5-5-5-5-|-1-1-1-1-1-1-1-1-|-1-1-1-1-1-1-1-1-|
E-----------------|-----------------|-----------------|-----------------|
   
G-5---------------|-5---------------|-7---------------|-7---------------|
D-5---------------|-5---------------|-7---------------|-7---------------|
A-3-3-3-3-3-3-3-3-|-3-3-3-3-3-3-3-3-|-5-5-5-5-5-5-5-5-|-5-5-5-5-5-5-5-5-|
E-----------------|-----------------|-----------------|-----------------|
  
G-7---------------|-7---------------|-3---------------|-3---------------|
D-7---------------|-7---------------|-3---------------|-3---------------|
A-5-5-5-5-5-5-5-5-|-5-5-5-5-5-5-5-5-|-1-1-1-1-1-1-1-1-|-1-1-1-1-1-1-1-1-|
E-----------------|-----------------|-----------------|-----------------|
                                                                          
G-5---------------|-5---------------|-----------------|-----------------|
D-5---------------|-5---------------|-----------------|-----------------|
A-3-3-3-3-3-3-3-3-|-3-3-3-3-3-3-3-3-|-5-5-------7-7-7-|-8-8-8-----5-5-5-|
E-----------------|-----------------|-----------------|-----------------| 

Repeat Chorus twice
 
(Outro)
G-----------------|-------------------|
D-----------------|-------------------|
A-00020002002002--|-00020002002002-5\-|
E-----------------|-------------------|

Thanks, please rate it after you learn it.
_TheBassist01_
            
Submit corrections

comments powered by Disqus
↑ Back to top | Iron Maiden Bass for Judas Be My Guide. Lyrics for acoustic guitar and electric guitar. 1 Tablatures and chords are parodies/interpretations of the original songs. You may use it for private study, scholarship, research or language learning purposes only