» » »

Journeyman Tabs (ver.3)

Artists:  A B C D E F G H I J K L M N O P Q R S T U V W X Y Z # 

Journeyman Tabs (ver.3)

Iron Maiden
Rating:
0/5 (0 votes)

Tabs too difficult? Try these video lessons and learn fast.
                (Live)
-----------------------------------------------------------------------------
                    Journeyman Solo (Live) - Iron Maiden
-----------------------------------------------------------------------------

Tuning: Standard

 Here's the solo that Adrian Smith plays on the Death On The Road version of Journeyman

e|-------------------------------10-12-13--12-10-12-10---10---------------9-|
B|-----------------------------------------------------13--13-12-13-12-10---|
G|---7-9/10--10-9-7-6---7/9-------------------------------------------------|
D|--7------------------------7----------------------------------------------|
A|--------------------------------------------------------------------------|
E|--------------------------------------------------------------------------|

e|--12p9--------9-12p9------------------------------------------------------|
B|------10---10--------10---------------------------------------------------|
G|---------9--------------9-------------------------------------------------|
D|--------------------------12-11-------------------------------------------|
A|--------------------------------12----------------------------------------|
E|--------------------------------------------------------------------------|







| /  slide up
| \  slide down
| h  hammer-on
| p  pull-off
| ~  vibrato
| +  harmonic
| x  Mute note
===============================================================================
            
Tabs too difficult? Try these video lessons and learn fast.




comments powered by Disqus
↑ Back to top | Tablatures and chords are parodies/interpretations of the original songs. You may use it for private study, scholarship, research or language learning purposes only