» » »

Iron Maiden Tabs (ver.3)

Artists:  A B C D E F G H I J K L M N O P Q R S T U V W X Y Z # 

Iron Maiden Tabs (ver.3)

Iron Maiden
Rating:
0/5 (0 votes)

Hard to play? Try these video lessons and learn fast.
                
 Intro x4      		  Riff 1    Riff 2
 -----------0------------|---------|---------|---------------------------------
 -------------1----------|---------|---------|---------------------------------
 -2-2-1h2-0-----0-2-0----|-9-------|-7-------|---------------------------------
 ------------------------|-9---x14-|-7---x14-|---------------------------------
 ------------------------|-7-------|-5-------|---------------------------------
 ------------------------|---------|---------|---------------------------------
 
 Repeat Riff 1 and Riff 2 x3(more)  
 Repeat Intro x4   

  Chorus 1 x3			Chorus 2 x1
 -----------------------------|------------------------------------------|-----
 -----------------------------|------------------------------------------|-----
 -5-5-------7-7----8\7--11b12-|-5-5-------7-7----12h14p12h14p12h14p12h14-|-----
 -5-5--5-5--7-7---------------|-5-5--5-5--7-7----------------------------|-----
 -3-3--5-5--5-5---------------|-3-3--5-5--5-5----------------------------|-----
 ------3-3--------------------|------3-3---------------------------------|-----
 
  Repeat Intro x4 
  Repeat Riff 1 and Riff 2 x4                      
  Repeat Chorus 1 x3
  Repeat Chorus 2 
   
  Interlude			      Solo x3                                 
 ------------------------------------|------------------------------------------
 -----------------------------10-12/-|-/17-15-----------------------------------
 ------------9-10-----9-10-12--------|--------17-16-14h16-----------14-16-16h17-
 ----9-10-12-------12----------------|--------------------17--15-17-------------
 -12---------------------------------|------------------------------------------
 ------------------------------------|------------------------------------------
                                                       
       Bass Part       Riff 3
 ----|---------------|----------|----------------------------------------------
 -15-|---------------|----------|----------------------------------------------
 ----|---------------|-7-777-5--|----------------------------------------------
 ----|---------------|-7-777-5--|----------------------------------------------
 ----|---------------|-5-555-3--|----------------------------------------------
 ----|---------------|----------|----------------------------------------------
 
 Repeat Intro x4
 Repeat Riff 1 and Riff 2 x4
 Repeat Chorus 1 x3
 Repeat Chorus 2 
 Sorry I don’t know the last part ‘cuz it was to hard for me to tab at
 My level of skill.
            
Hard to play? Try these video lessons and learn fast. | Correct




comments powered by Disqus
↑ Back to top | Tablatures and chords are parodies/interpretations of the original songs. You may use it for private study, scholarship, research or language learning purposes only