» » »

Iron Maiden, Iron Maiden Bass tabs (ver.1)

Artists:  A B C D E F G H I J K L M N O P Q R S T U V W X Y Z # 

Iron Maiden Bass tabs (ver.1)

Iron Maiden Tabs
 Rating:
4/5 (4 votes)
Iron Maiden lessons Tabs too difficult? Try these video lessons and learn fast
1
                Iron maiden by Iron maiden (haha)
Standard Tuning

||-----------------------------------------------------------7h9-7---|
||-----------------------------------7-7-7-7-7-7-7-7-7-7-7-7-------9-|
||-------------------------------------------------------------------|
||-------------------------------------------------------------------|

-------------------------5h7-5---------------------------7h9-7-------|
-5-5-5-5-5-5-5-5-5-5-5-5-------7-7-7-7-7-7-7-7-7-7-7-7-7-------9-5-5-|
---------------------------------------------------------------------|
---------------------------------------------------------------------|

---------------------5h7-5---|---------------------------------------|
-5-5-5-5-5-5-5-5-5-5-------7-|-7-7-7-7-7-7-7-7-7-7-7-7-7-7-7-7-5-5-5-|
-----------------------------|---------------------------------------|
-----------------------------|---------------------------------------|

---------------------------------------------------------------------|
-5-5-5-5--5--3------5---3------3-5-7-7-7-7-7-7-7-7-7-7-7-7-7-7-7-7-5-|
----------------5-----------5----------------------------------------|
---------------------------------------------------------------------|

----------------------------------------|-----------------------------|
-5-5-5-5-5-5--5---3------5---3------3-5-|---------------------------4-|
---------------------5----------5-------|-3---3--3-3------------5-5---|
----------------------------------------|------------3---3--3-3-------|

 Iron maidens gonna get you...
---------------------------------------------------------------------|
-5-7---------7-5-------------------------------4-5-7---------7-5-----|
-------4-5-7-----7-5-3---3--3-3------------5-5---------4-5-7-----7-5-|
-----5--------------------------3---3--3-3-----------5---------------|

----------------------------------------------------------------------|
---------------------------4-5-7--7-5-4-------------------------------|
-3---3--3-3------------5-5--------------7-5-4-----3---3--3-3----------|
------------3---3--3-3------------------------7-5------------3---3--3-|

-------------------------------||-----------------------------------4-|
---------4-5-7---------7-5-----||---------------------------5---7-----|
-----5-5---------4-5-7-----7-5-||-----------5---7---8-5-7-8-----------|
-3-3-----------5---------------||-5---7---8---------------------------|

----------------------------------4-|---9----7----5---5---------9----|
----------------------------5---7---|-7----7----5---5---------7----7-|
------------5---7---8-5-7-8---------|--------------------5-3---------|
--5---7---8-------------------------|--------------------------------|

-7----5---5---------9----7----5---5----------------------||-9----9---|
----5---5---------7----7----5---5------------------------||-7----7---|
-------------5-3---------------------5-3--5-5-5-5-5--3---||-0----0---|
---------------------------------------------------------||----------|

-9----9---------------------------------||
-7----7----------------------------7\---||
-0----0----------------------------0----||
----------------------------------------||

Thanks, please rate it after you learn it.
_TheBassist01_
            
Submit corrections

comments powered by Disqus
↑ Back to top | Iron Maiden Bass for Iron Maiden. Lyrics for acoustic guitar and electric guitar. 1 Tablatures and chords are parodies/interpretations of the original songs. You may use it for private study, scholarship, research or language learning purposes only