>
 >
Iorn Maiden

Iorn Maiden Guitar Tabs

Iron Maiden - Iorn Maiden chords, tabs, tablatures, lyrics

Guitar lessons | Add/correct | Request | Top 50 tabs Artists:  A B C D E F G H I J K L M N O P Q R S T U V W X Y Z 0-9

Iorn Maiden Guitar Tabs – Iron Maiden

CD, Sheet music, Poster

Do you like Iorn Maiden? Share with your friends now
Tabs
I would like to thank simon bohman without him i would never be able to play thanks you're great

 This is the whole of the Bands First Album. It took Me ages to tab so enjoy it.

Coming soon.

Killers                                 No prayer for the Dying
The number of the Beast                 Fear Of the Dark
Piece Of Mind                           A real live dead one
Powerslave                              Live at donnington
Live After Death                        The X Factor
Somewhere In time                       Virtual X1
Seventh son of a seventh son            The best of the Beast
Brave New World                         Rock In Rio
Edward the Great

p= pull off
T= trem bar
~= shake
b= bend
--7-7--------3-3-3-3---5-5-5-5--7-7----7-7---3-3-3-3---5-5-5-5-----7-}
{--5-5----5-5--------3-3-3-3---5-5-5-5--5-5----5-5---3-3-3-3---5-5-5-5-----7-}
{-----------------------1-1-1-1---3-3-3-3------------------1-1-1-1---3-3-3-3-----5-}

Chorus

  So give me sanctuary.......                    tonight.........
{-----------------------------------------------------------------------------------}
{-----------------------------------------------------------------------------------}
{------------------------------------7-7-7-7----------------------------------------}
{--7-7-7-7----5-5-5-5----7-7-7-7-----7-7-7-7-----9-7-9---7-5-7-----7----------------}
{--7-7-7-7----5-5-5-5----7-7-7-7-----5-5-5-5-----7-5-7---5-3-5-----7----------------}
{--5-5-5-5----3-3-3-3----5-5-5-5-----------------------------------5----------------}

 solo rythm

{----------------------}
{----------------------}
{----------------------}
{---7-7----7-7------}
{---5-5----5-5------}
{----------------------}

 Sorry still working on the solo


Remember Tomorrow

Unchain the colours before my eyes,
Yesterday's sorrows, tomorrow's white lies.
Scan the horizon, the clouds take me higher,
I shall return from out of fire.

Tears for rememberance, and tears for joy,
Tears for somebody and this lonely boy.
Out in the madness, the all seeing eye,
Flickers above us, to light up the sky

Unchain the colours before my eyes,
Yesterday's sorrows, tomorrow's white lies.
Scan the horizon, the clouds take me higher,
I shall return from out of fire

Intro

E----7-----7-----7-----7-----7--------8-------8-------8----7-----7-----7----|
B------8-----8-----8-----8-----8--------10------10------10---8-----8-----8--|
G--9-----9-----9-----9-----9-----9---------10------10----------9-----9------|
D---------------------------------------------------------------------------|
A---------------------------------------------------------------------------|
E---------------------------------------------------------------------------|

   
E----7-----7-----7-----7-----7--------8-------8-------8----7-----7-----7----|
B------8-----8-----8-----8-----8--------10------10------10---8-----8-----8--|
G--9-----9-----9-----9-----9-----9---------10------10----------9-----9------|
D---------------------------------------------------------------------------|
A---------------------------------------------------------------------------|
E---------------------------------------------------------------------------|


  Scan the horizon........... 
E----7-----7-----7-----7-----7--------8-------8-------8----7-----7-----7----|
B------8-----8-----8-----8-----8--------10------10------10---8-----8-----8--|
G--9-----9-----9-----9-----9-----9---------10------10----------9-----9------|
D---------------------------------------------------------------------------|
A---------------------------------------------------------------------------|
E---------------------------------------------------------------------------|


   I shall return.........
E----7-----7-----7-----7-----7------|--8-------8-------8----7-----7-----7----|
B------8-----8-----8-----8-----8----|----10------10------10---8-----8-----8--|
G--9-----9-----9-----9-----9-----9--|-------10------10----------9-----9------|
D-----------------------------------|----------------------------------------|
A-----------------------------------|----------------------------------------|
E-----------------------------------|----------------------------------------|

  Chorus

E---------------------------------------------------|
B---------------------------------------------------|
G---------------------------------------------------|
D-----------4---4-------------------5---5-----------|
A--2--------2---2--5--4----5--------3---3--3-2------|
E--0---0-0---------3--2----3---3-3-------------3-2--|

E---------------------------------------------------|
B---------------------------------------------------|
G---------------------------------------------------|
D-----------4---4-------------------5---5-----------|
A--2--------2---2--5--4----5--------3---3--3-2------|
E--0---0-0---------3--2----3---3-3-------------3-2--|

E---------------------------------------------------|
B---------------------------------------------------|
G---------------------------------------------------|
D-----------4---4-------------------5---5-----------|
A--2--------2---2--5--4----5--------3---3--3-2------|


E--0---0-0---------3--2----3---3-3-------------3-2--|
E---------------------------------------------------|
B---------------------------------------------------|
G---------------------------------------------------|
D-----------4---4-------------------5---------------|
A--2--------2---2--5--4----5--------3---------------|
E--0---0-0---------3--2----3---3-3------------------|

  This bit comes before second verse


E----7-----7-----7-----7-----7--------7-----7-----7-----7-----7------|
B------8-----8-----8-----8-----8--------8-----8-----8-----8-----8----|
G--9-----9-----9-----9-----9-----9--------9-----9-----9-----9-----9--|
D--------------------------------------------------------------------|
A--------------------------------------------------------------------|
E--------------------------------------------------------------------|

  Riff A
E----------------------------------------------------------|
B----------------------------------------------------------|
G----------------------------------------------------------|
D--7-------7-------7-------5--5----7-------7-------5--5-5--|
A--5---5-5-5---5-5-5---5-5-3--3----5---5-5-5---5-5-3--3-3--|
E----------------------------------------------------------|

  Riff B
E-------------------------------------------------------------------|
B-------------------------------------------------------------------|
G-------------------------------------------------------------------|
D--9-------9-------9-------12--12----9-------9-------12--12--12-14--|
A--7---7-7-7---7-7-7---7-7-10--10----7---7-7-7---7-7-10--10--10-12--|
E-------------------------------------------------------------------|

  Riff C
E--------------------------------------------------------------|
B--------------------------------------------------------------|
G--------------5-5-5-5-5-5-3------------------7-7-7-7-7-7-5----|
D----------------------------5------------------------------7--|
A--3-3-3-3-3-3--------------------5-5-5-5-5-5------------------|
E--------------------------------------------------------------|

E--------------------------------------------------------------|
B--------------------------------------------------------------|
G--------------4-4-4-4-4-4-2------------------5-5-5-5-5-5-3----|
D----------------------------4------------------------------5--|
A--2-2-2-2-2-2--------------------3-3-3-3-3-3------------------|
E--------------------------------------------------------------|

E--------------------------------------------------------------|
B--------------------------------------------------------------|
G--------------5-5-5-5-5-5-3------------------7-7-7-7-7-7-5----|
D----------------------------5------------------------------7--|
A--3-3-3-3-3-3--------------------5-5-5-5-5-5------------------|
E--------------------------------------------------------------|

E--------------------------------------------------------------|
B--------------------------------------------------------------|
G--------------4-4-4-4-4-4-2-----------------------------------|
D----------------------------4----5-----------7----------------|
A--2-2-2-2-2-2--------------------3-----------5----------------|
E--------------------------------------------------------------|


Solo(this solo is taken from a real dead one)p.s which will also be available soon!!!!

e:----------------------------------------------------------------------------|
B:--12b15~--13-15-13-15-13-15-13-15-13-15-13-<-12-13-12-13-12-13-12-13--------|
G:----------------------------------------------------------------------------|
D:----------------------------------------------------------------------------|
A:----------------------------------------------------------------------------|
E:----------------------------------------------------------------------------|

e:----------------------------------------------------------------------------|
B:--10-12-10-12-10-8-7-8-7-<-5-7-5-8-5-8-7-8-5-7-5---5--7--8---7--------------|
G:---------------------------------------------------7-----------9----7-/-9---|
D:----------------------------------------------------------------------------|
A:----------------------------------------------------------------------------|
E:----------------------------------------------------------------------------|

e:----------------------------------------------------------------------------|
B:-----------------12-13-15-15-13-12------------------------------------------|
G:--12-11-12-12-14-------------------11-14-12-12-11---------------------------|
D:--------------------------------------------------14-12--12--10--12--10--9--|
A:----------------------------------------------------------------------------|
E:----------------------------------------------------------------------------|

e:-----------12-14-12-----12-14-12-----12-14-12-14-12-------------------------|
B:-------15-----------15-----------15-----------------15-15b17r15---12--------|
G:----------------------------------------------------------------------------|
D:--9-/-----------------------------------------------------------------------|
A:----------------------------------------------------------------------------|
E:----------------------------------------------------------------------------|

e:----------------------------------------------------------------------------|
B:--12-13-12-15-13-15-13-12-13-12---------------------12b15~--12-15-12-TRILL--|
G:--------------------------------14-12-11-12-11-14~--------------------------|
D:-----------------------------------------------------------------W/BAR------|
A:----------------------------------------------------------------------------|
E:----------------------------------------------------------------------------|

  Solo 2

SOLO 2:

e:----------------------------------------------------------------------------|
B:--12---------10---------8----------7---------5--------3--------1------------|
G:--14b16------12b14------10b12------9b11------7b9------5b7------3b5------2b3-|
D:----------------------------------------------------------------------------|
A:----------------------------------------------------------------------------|
E:----------------------------------------------------------------------------|

e:---------------------------------x--x--x--15-----15----15----15--15---------|
B:--SEMI HARM..........-------------------------15----15----15----------------|
G:--2--2--2--2--2--2--2---2-0-----------------------------------------14-12---|
D:-----------------------------2~---------------------------------------------|
A:----------------------------------------------------------------------------|
E:----------------------------------------------------------------------------|

e:--------------------------------------------12------------------------------|
B:-----------------------0---3b-5-----0--0----15b17-~-------------------------|
G:--11~--14--14----------0------------0--0------------------------------------|
D:---------------12~----------------------------------------------------------|
A:----------------------------------------------------------------------------|
E:----------------------------------------------------------------------------|

  

Running free

Intro


e:----------------------------------------------------------------------------|
B:----------------------------------------------------------------------------|
G:--9----12--9----5----7----9----12--9----5----7------------------------------|
D:--9----12--9----5----7----9----12--9----5----7------------------------------|
A:--7----10--7----3----5----7----10--7----3----5------------------------------|
E:----------------------------------------------------------------------------|

VERSE

e:----------------------------------------------------------------------------|
B:----------------------------------------------------------------------------|
G:--9------5--7----9----------------9------5--7----9--------------------------|
D:--9------5--7----9------5----7----9------5--7----9------5----7--------------|
A:--7------3--5----7------5----7----7------3--5----7------5----7--------------|
E:------------------------3----5--------------------------3----5--------------|

CHORUS

e:----------------------------------------------------------------------------|
B:----------------------------------------------------------------------------|
G:--9----12--9--7--9----x--9--\----5----7-------------------------------------|
D:--9----12--9--7--9----x--9--\----5----7-------------------------------------|
A:--7----10--7--5--7----x--7--\----3----5-------------------------------------|
E:----------------------------------------------------------------------------|

  Cool bit!!!!!!!!

e:----------------------------------------------------------------------------|
B:--15^13^12-13^12^10-12^10^8-10^8^7-8^7^5-7^5^4-5^3^0-3----------------------|
G:--14^12^11-12^11^9--11^9^7--9^7^6--7^6^4-6^4^2-4^2^0-0----------------------|
D:----------------------------------------------------------------------------|
A:----------------------------------------------------------------------------|
E:----------------------------------------------------------------------------|

e:----------------------------------------------------------------------------|
B:--15^13^12-13^12^10-12^10^8-10^8^7-8^7^5-7^5^4-5^3^0-3^0--------------------|
G:--14^12^11-12^11^9--11^9^7--9^7^6--7^6^4-6^4^2-4^2^0-0----------------------|
D:----------------------------------------------------------------------------|
A:----------------------------------------------------------------------------|
E:----------------------------------------------------------------------------|

e:--19^17^15-17^15^14-15^14^12-14^12^10-12^10^9-10^9^7-8^7^5-7----------------|
B:--19^17^15-17^15^14-15^14^12-14^12^10-12^10^8-10^8^7-8^7--------------------|
G:---------------------------------------------------------9^7----------------|
D:----------------------------------------------------------------------------|
A:----------------------------------------------------------------------------|
E:----------------------------------------------------------------------------|

e:--19^17^15-17^15^14-15^14^12-14^12^10-12^10^9-10^9^7-8^7^5-7----------------|
B:--19^17^15-17^15^14-15^14^12-14^12^10-12^10^8-10^8^7-8^7--------------------|
G:---------------------------------------------------------9^7----------------|
D:----------------------------------------------------------------------------|
A:----------------------------------------------------------------------------|
E:----------------------------------------------------------------------------|

e:--7^5---5--7^5---5--7^5---7^5---7^5---5-------------------------------------|
B:--8^7-8----8^7-8----8^7-8-8^7-8-8^7-8---------------------------------------|
G:------9-7------9-7------9-----9-----9-7-------------------------------------|
D:----------------------------------------------------------------------------|
A:----------------------------------------------------------------------------|
E:----------------------------------------------------------------------------|

RIFF C:

e:----------------------------------------------------------------------------|
B:----------------------------------------------------------------------------|
G:-----------------------------------------------------------------4~---------|
D:--------------9-9-------------9-9-------------9-\-5-5-5-4-4-4-0--5~---------|
A:--------------7-7-------------7-7-------------7-\-7-7-7-5-5-5-2-------------|
E:--0-0-0-0-0-0-----0-0-0-0-0-0-----0-0-0-0-0-0-------------------------------|

e:----------------------------------------------------------------------------|
B:----------------------------------------------------------------------------|
G:----------------------------------------------------------------------------|
D:--------------9-9-------------9-9-------------9-\----------5--7-------------|
A:--------------7-7-------------7-7-------------7-\----------3--5-------------|
E:--0-0-0-0-0-0-----0-0-0-0-0-0-----0-0-0-0-0-0-----0--0--0-------------------|

INTERLUDE 2:

e:----------------------------------------------------------------------------|
B:--------10^12^10^8^10--------10^12^10^8^10--------10^12^10^8^10-------------|
G:--------11^12^11^9^12--------11^12^11^9^12--------11^12^11^9^12-------------|
D:--9--9-----------------9--9-----------------9--9-----------------5--7-------|
A:--7--7-----------------7--7-----------------7--7-----------------3--5-------|
E:----------------------------------------------------------------------------|

  OUTRO
e:----------------------------------------------------------------------------|
B:--15^13^12-13^12^10-12^10^8-10^8^7-8^7^5-7^5^3-5^3^0-3^0--------------------|
G:--14^12^11-12^11^9--11^9^8--9^7^6--7^6^4-6^4^2-4^2^0------------------------|
D:----------------------------------------------------------------------------|
A:----------------------------------------------------------------------------|
E:----------------------------------------------------------------------------|

e:----------------------------------------------------------------------------|
B:--17-------17---------19-------19-------------------------------------------|
G:--19b(21)--19b(21)----21b(23)--21b(23)--------------------------------------|
D:----------------------------------------------------------------------------|
A:----------------------------------------------------------------------------|
E:----------------------------------------------------------------------------|

  Phantom of the opera  (my fav iron maiden song it's fun to play)
  
  Intro
e:----------------------------------------------------------------------------|
B:----------------------------------------------------------------------------|
G:------4-4-4-5^4---7-4---5-4-----------------4-4-4-5^4---7-4---5-4-----------|
D:--4^5-----------5-----5-----5-4-5-7-----4^5-----------5-----5-----5-4-5-7---|
A:------------------------------------2-------------------------------------2-|
E:----------------------------------------------------------------------------|

e:----------------------------------------------------------------------------|
B:----------------------------------------------------------------------------|
G:------4-4-4-5^4---7-4---5-4----------------4-4-4-5^4---7-4---5-4------------|
D:--4^5-----------5-----5-----5-4-5-7----4^5-----------5-----5-----5-4-5-7----|
A:------------------------------------2---------------------------------------|
E:----------------------------------------------------------------------------|

  slide up really fast !!!!!!!!!!!!!!!!!

e:--------------------------------5-5-5-7-7-7-10-10-10------------------------|
B:--------------------5-5-5-8-8-8---------------------------------------------|
G:--4-4-4-5-5-5-7-7-7---------------------------------------------------------|
D:----------------------------------------------------------------------------|
A:----------------------------------------------------------------------------|
E:----------------------------------------------------------------------------|

e:--15^12----15^12----15^12----15^12----15^12----15^12----15^12----15~--------|
B:--------15-------15-------15-------15-------15-------15-------15------------|
G:----------------------------------------------------------------------------|
D:----------------------------------------------------------------------------|
A:----------------------------------------------------------------------------|
E:----------------------------------------------------------------------------|

   Riff 1
e:----------------------------------------------------------------------------|
B:----------------------------------------------------------------------------|
G:*--------------------------------------------12--7-------------------------*|
D:*--------------------------------------------12--7-------------------------*|
A:---7-7-7-10-7-7--7-7-7-10-7-7--7-7-7-10-7-7--10--5--------------------------|
E:----------------------------------------------------------------------------|

                                                                           x3
e:----------------------------------------------------------------------------|
B:----------------------------------------------------------------------------|
G:*--------------------------------------------------------------------------*|
D:*--------------------------------------------------------------------------*|
A:---9-9-9-12-9-9--9-9-9-12-9-9--10-10-10-13-10-10--10-10-10-13-10-10---------|
E:----------------------------------------------------------------------------|

  Riff 2

e:----------------------------------------------------------------------------|
B:----------------------------------------------------------------------------|
G:--9--9--4--4--5--5--7--7--7-------------------------------------------------|
D:--9--9--4--4--5--5--7--7--7-------------------------------------------------|
A:--7--7--2--2--3--3--5--5--5-------------------------------------------------|
E:----------------------------------------------------------------------------|

e:----------------------------------------------------------------------------|
B:----------------------------------------------------------------------------|
G:*--------------------------------------------12--12--12--------------------*|
D:*--------------------------------------------12--12--12--------------------*|
A:---7-7-7-10-7-7--7-7-7-10-7-7--7-7-7-10-7-7--10--10--10---------------------|
E:----------------------------------------------------------------------------|


 Play this bit palm muted

  Keep Yor distance............

e:----------------------------------------------------------------------------|
B:----------------------------------------------------------------------------|
G:--------9-----------9-----------9-----9----7--------------------------------|
D:-----9-----9-----9-----9-----9-----9--9----7--------------------------------|
A:--7-----------7-----------7-----------7----5--------------------------------|
E:----------------------------------------------------------------------------|

e:----------------------------------------------------------------------------|
B:----------------------------------------------------------------------------|
G:--------9-----------9-----------9-----9----7--------------------------------|
D:-----9-----9-----9-----9-----9-----9--9----7--------------------------------|
A:--7-----------7-----------7-----------7----5--------------------------------|
E:----------------------------------------------------------------------------|

e:----------------------------------------------------------------------------|
B:----------------------------------------------------------------------------|
G:--------7-----------7-----------5-----------5-------------------------------|
D:-----7-----7-----7-----7-----5-----5-----5-----5----------------------------|
A:--5-----------5-----------3-----------3-------------------------------------|
E:----------------------------------------------------------------------------|

e:----------------------------------------------------------------------------|
B:----------------------------------------------------------------------------|
G:--------9-----------9-----------9-----9----7--------------------------------|
D:-----9-----9-----9-----9-----9-----9--9----7--------------------------------|
A:--7-----------7-----------7-----------7----5--------------------------------|
E:----------------------------------------------------------------------------|

  This bit is reaaly cool!!!!!!!!!!!

e:--19^15----19^15----19^15----19^15-----17^14----17^14----17^14----17^14-----|
B:--------17-------17-------17-------17--------15-------15-------15-------15--|
G:----------------------------------------------------------------------------|
D:----------------------------------------------------------------------------|
A:----------------------------------------------------------------------------|
E:----------------------------------------------------------------------------|
 :
e:--15^12----15^12----15^12----15^12----14^10----14^10----14^10----14^10------|
B:--------12-------12-------12-------12-------10-------10-------10-------10---|
G:----------------------------------------------------------------------------|
D:----------------------------------------------------------------------------|
A:----------------------------------------------------------------------------|
E:----------------------------------------------------------------------------|

e:--15^12----15^12----15^12----15^12----19^15----19^15----19^15----19^15------|
B:--------13-------13-------13-------13-------17-------17-------17-------17---|
G:----------------------------------------------------------------------------|
D:----------------------------------------------------------------------------|
A:----------------------------------------------------------------------------|
E:----------------------------------------------------------------------------|
 :
e:--12^8---12^8---12^8---12^8---15^12----15^12----15^12----15^12--------------|
B:-------8------8------8------8-------12-------12-------12--------------------|
G:----------------------------------------------------------------------------|
D:----------------------------------------------------------------------------|
A:----------------------------------------------------------------------------|
E:----------------------------------------------------------------------------|

e:--12-12-12-12-12-12-14-14-14-14-14-14---------------------------------------|
B:--13-13-13-13-13-13-15-15-15-15-15-15---------------------------------------|
G:----------------------------------------------------------------------------|
D:----------------------------------------------------------------------------|
A:----------------------------------------------------------------------------|
E:----------------------------------------------------------------------------|

e:----------------------13^12^10----------------------------------------------|
B:--13^12^10--13^12^10------------13^12^10------------------------------------|
G:----------------------------------------------------------------------------|
D:----------------------------------------------------------------------------|
A:----------------------------------------------------------------------------|
E:----------------------------------------------------------------------------|
 :
e:--12^10^8-12^10^8-17^15^13-12^10^8------------------------------------------|
B:----------------------------------------------------------------------------|
G:----------------------------------------------------------------------------|
D:----------------------------------------------------------------------------|
A:----------------------------------------------------------------------------|
E:----------------------------------------------------------------------------|

e:--------------------------------------13^12^10------------------------------|
B:--13^12^10-13^12^10-13^12^10-13^12^10---------------------------------------|
G:----------------------------------------------------------------------------|
D:----------------------------------------------------------------------------|
A:----------------------------------------------------------------------------|
E:----------------------------------------------------------------------------|
 :
e:--12^10-^8-12^10-^8-12^10-^8-12^10-^8-17^15^13------------------------------|
B:----------------------------------------------------------------------------|
G:----------------------------------------------------------------------------|
D:----------------------------------------------------------------------------|
A:----------------------------------------------------------------------------|
E:----------------------------------------------------------------------------|

   if youre fingers are not broken play this !!!!!!!!!!!!!!!

e:----------------------------------------------------------------------------|
B:----------------------------------------------------------------------------|
G:----------------------------------------------------------------------------|
D:--9----9-9-9-9--9-9-9--12----12-12-12-12--12-12-12--14----14-14-14-14-------|
A:--7----7-7-7-7--7-7-7--10----10-10-10-10--10-10-10--12----12-12-12-12-------|
E:----------------------------------------------------------------------------|

e:----------------------------------------------------------------------------|
B:----------------------------------------------------------------------------|
G:------------5---------4-----------------------------------------------------|
D:--14-14-14--5---------4-----------------------------------------------------|
A:--12-12-12--3--3-3-3--2--2-2-2----------------------------------------------|
E:----------------------------------------------------------------------------|

    Next up is this!!!!!!!!!!!!!

e:----------------------------------------------------------------------------|
B:----------------------------------------------------------------------------|
G:--9------------------9------------------12---------12--13--14---------5--7--|
D:--9------------------9------------------12---------12--13--14---------3--7--|
A:--7--STRUM--7-5---5--7--STRUM--7-5---5--10--STRUM--10--11--12--STRUM--3--5--|
E:----------------7------------------7----------------------------------------|

INTERLUDE 

e:------------------------------------------7---------------------------------|
B:------------------8~------8-7-8~--7-8-7-8---8~--8-7-8~--7-8-7-8-7-----------|
G:--9-7-9~--7-9-7-9-----9~------------------------------------------9~--------|
D:----------------------------------------------------------------------------|
A:----------------------------------------------------------------------------|
E:----------------------------------------------------------------------------|

e:----------------------------------------------------------------------------|
B:------------8-7---7-8-7~----------------------------------------------------|
G:--9-7-9~--9-----9-----------------------------------------------------------|
D:----------------------------------------------------------------------------|
A:----------------------------------------------------------------------------|
E:----------------------------------------------------------------------------|

GTR 2:

e:--------------------------------------------------------10------------------|
B:-------------------------12------12-10-12~--10-12-10-12----12~--------------|
G:--12-11-12~--11-12-11-12----12~---------------------------------------------|
D:----------------------------------------------------------------------------|
A:----------------------------------------------------------------------------|
E:----------------------------------------------------------------------------|

e:----------------------------------------------------------------------------|
B:--12-10-12~--10-12-10-12-10-----------------12-10----10-12-10~--------------|
G:----------------------------12~--12-11-12~--------12------------------------|
D:----------------------------------------------------------------------------|
A:----------------------------------------------------------------------------|
E:----------------------------------------------------------------------------|

SOLO RYTHM

e:----------------------------------------------------------------------------|
B:----------------------------------------------------------------------------|
G:----------------------------------------------------------------------------|
D:--9--9-9-9--9--9--9-9-9--9--12--12-12-12--12--14--14-14-14--14--5--7--------|
A:--7--7-7-7--7--7--7-7-7--7--10--10-10-10--10--12--12-12-12--12--3--5--------|
E:----------------------------------------------------------------------------|

SOLO 1:

e:--------------12-------------------------------------------13--12^13^12-----|
B:--------------12----15b(17)~----15---------------------------------------15-|
G:--14b(16)~--------------------------14--16^14^12--12b(14)-------------------|
D:----------------------------------------------------------------------------|
A:----------------------------------------------------------------------------|
E:----------------------------------------------------------------------------|

e:--15--13^15^13--12^13^12----------------------12b(13)~----13--12~--12b(13)~-|
B:--------------------------15b(17)~----12--15--------------------------------|
G:----------------------------------------------------------------------------|
D:----------------------------------------------------------------------------|
A:----------------------------------------------------------------------------|
E:----------------------------------------------------------------------------|

e:------12---------12--13--12^13^12------15--13^15^13--12^13^12---------------|
B:--15------12~----------------------15-------------------------15b(17)~------|
G:----------------------------------------------------------------------------|
D:----------------------------------------------------------------------------|
A:----------------------------------------------------------------------------|
E:----------------------------------------------------------------------------|

e:--12--13--15--17--17--17b(19)~--17^19^17^19^17^19^17-\-13--17--13^17^13-----|
B:----------------------------------------------------------------------------|
G:----------------------------------------------------------------------------|
D:----------------------------------------------------------------------------|
A:----------------------------------------------------------------------------|
E:----------------------------------------------------------------------------|

e:--^17^13^17^13-\-12-15-12^10^12-12-12~--13-12^13^12-10-15-13^15^13-12^13^12-|
B:----------------------------------------------------------------------------|
G:----------------------------------------------------------------------------|
D:----------------------------------------------------------------------------|
A:----------------------------------------------------------------------------|
E:----------------------------------------------------------------------------|

e:----------------------------------------------------------------------------|
B:--15b(17)~----15----------12--12--------------------------------------------|
G:------------------12--14----------14~----12--14^12--------------------------|
D:----------------------------------------------------15----15--17^15---------|
A:----------------------------------------------------------------------------|
E:----------------------------------------------------------------------------|

e:-----------------------------------------12--13--12^13^12------15--13^15^13-|
B:--------------------------------------12-------------------15---------------|
G:----------------------------------------------------------------------------|
D:----------------------------------------------------------------------------|
A:--14^15^14^15^14-\-12^14^12--12b(14)----------------------------------------|
E:----------------------------------------------------------------------------|

e:--12^13^12------------------------------------------------------------------|
B:-----------15b(17)~---------------------------------------------------------|
G:----------------------------------------------------------------------------|
D:----------------------------------------------------------------------------|
A:----------------------------------------------------------------------------|
E:----------------------------------------------------------------------------|

SOLO 2

e:-----------12---------------------------------------------------------------|
B:--15b(17)------15b(17)--15b(17)~----15------15--13^15^13-12^13^12-----------|
G:----------------------------------------12------------------------14b(16)~--|
D:----------------------------------------------------------------------------|
A:----------------------------------------------------------------------------|
E:----------------------------------------------------------------------------|

e:-----------12-12-12b(13)~-------12---------12-------------------------------|
B:--12-14-15-------------------15----12~--15-----15^17^15-14^15^14-12^10^12---|
G:----------------------------------------------------------------------------|
D:----------------------------------------------------------------------------|
A:----------------------------------------------------------------------------|
E:----------------------------------------------------------------------------|

e:-----------------------------------------------------------------11-12-14---|
B:--^10-\-8----------------------------7------------------------12------------|
G:-----------14-12----12-----------8-9---9-8^9^8----8-------------------------|
D:-----------------14----------------------------10---10^9^10-9---------------|
A:-------------------------14--14---------------------------------------------|
E:----------------------------------------------------------------------------|

e:--12-11^12^11------------------------------------14-12----12----------------|
B:--------------13-16-13-12-13-12-11-13~--13-15-15-------15----12~------------|
G:--------------------------------------------------------------------12------|
D:----------------------------------------------------------------------------|
A:----------------------------------------------------------------------------|
E:----------------------------------------------------------------------------|

e:----------------------------------------------------------------------------|
B:--------------------12-------12---------------------------------------------|
G:--14b(16)~----14-12----14-12----12-11^12^11^12^11----11-12-14b(16)~---------|
D:--------------------------------------------------12------------------------|
A:----------------------------------------------------------------------------|
E:----------------------------------------------------------------------------|

SOLO 3

e:-----------12----------------------------------12---------------------------|
B:-------------------15b(17)--15b(17)--15b(17)~------12-----------------------|
G:--14b(16)------15--------------------------------------14--12--14b(16)--12--|
D:----------------------------------------------------------------------------|
A:----------------------------------------------------------------------------|
E:----------------------------------------------------------------------------|

e:-------------------12---------------15-----------------------12--15--12-----|
B:-----------------------12-----------17----17-15----15b(17)~-----------------|
G:------12--14b(16)----------19b(21)--------------16--------------------------|
D:--14------------------------------------------------------------------------|
A:----------------------------------------------------------------------------|
E:----------------------------------------------------------------------------|

e:--13b(15)~----12-------12--15--12--19^15----17^15----15--------15-19^15-----|
B:------------------15~--------------------17-------17----17--17----------19--|
G:----------------------------------------------------------------------------|
D:----------------------------------------------------------------------------|
A:----------------------------------------------------------------------------|
E:----------------------------------------------------------------------------|

e:--17^15----19^15-----17^15----19^15----19^15----17^15----19^15----17^15-----|
B:--------17-------17--------19-------17-------17-------17-------17-------17--|
G:----------------------------------------------------------------------------|
D:----------------------------------------------------------------------------|
A:----------------------------------------------------------------------------|
E:----------------------------------------------------------------------------|

e:--19^15----17^15----19^15---------------------------------------------------|
B:--------17-------17-------17-\----------------------------------------------|
G:----------------------------------------------------------------------------|
D:----------------------------------------------------------------------------|
A:----------------------------------------------------------------------------|
E:----------------------------------------------------------------------------|

Part 2 of the album is coming soon because it's too big to put on Keep playing !!!!!!!





Comments


Popular Iron Maiden tabs & chords
Brave New World 2 Bass Tabs
Hallowed Be Thy Name 2 Bass Tabs
The Clairvoyant 1 Bass Tabs
Afraid To Shoot Strangers 2 Tabs
Charlotte In The Harlot Tabs
Children Of The Damned Tabs
Fear Of The Dark 2 Tabs
Hallowed Be Thy Name 1 Tabs
Judgement Day Tabs
Prowler 1 Tabs


Song lyrics



↑ Back to top | Tablatures and chords are parodies/interpretations of the original songs. You may use it for private study, scholarship, research or language learning purposes only
© 2014 AZChords.com Contact us | Privacy policy | DMCA | Add/correct tabs | Request tabs | Top 50 tabs