>
 >
Hooks In You

Hooks In You Bass Tabs

Iron Maiden - Hooks In You chords, tabs, tablatures, lyrics

Guitar lessons | Add/correct | Request | Top 50 tabs Artists:  A B C D E F G H I J K L M N O P Q R S T U V W X Y Z 0-9

Hooks In You Bass Tabs – Iron Maiden

CD, Sheet music, Poster

Do you like Hooks In You? Share with your friends now
Bass TabsTabsTabs v2
IRON MAIDEN
Hooks in you



                                                              
G||------------------|--------------------|------------------|
D||------------------|--------------------|------------------|
A||------------------|--------------------|------------------|
E||------------------|--------------0--0--|------------------|


                                                                 
--------------------------|------------------|------------------|
--------------------7--6--|------------------|------------------|
--------5-----7--5--------|------------------|------------------|
--5--7-----7--------------|------------------|------------------|


                                                      
------------------|--------------------------14--13--|
------------------|----------14------14--12----------|
------------------|--12--14------14------------------|
------------------|----------------------------------|


                                                                                
--------------------------|-------------------------|--------------------------|
--------------------------|-------------------------|--------------------------|
--7--7--7--7--7--7--7--7--|--7--7--7--7----7--5--7--|--7--7--7--7--7--7--7--7--|
--------------------------|-------------------------|--------------------------|


                                                                                
--------------------------|--------------------------|-------------------------|
--------------------7--6--|--------------------------|-------------------------|
--------5-----7--5--------|--7--7--7--7--7--7--7--7--|--7--7--7--7----7--5--7--|
--5--7-----7--------------|--------------------------|-------------------------|


                                                             
-------------------------|--------------------------14--13--|
-------------------------|----------14------14--12----------|
----7--7--7--7--7--7--7--|--12--14------14------------------|
-------------------------|----------------------------------|


                                                                                
--------------------------|-------------------------|--------------------------|
--------------------------|-------------------------|--------------------------|
--7--7--7--7--7--7--7--7--|--7--7--7--7----7--5--7--|--7--7--7--7--7--7--7--7--|
--------------------------|-------------------------|--------------------------|


                                                                                
--------------------------|--------------------------|-------------------------|
--------------------7--6--|--------------------------|-------------------------|
--------5-----7--5--------|--7--7--7--7--7--7--7--7--|--7--7--7--7----7--5--7--|
--5--7-----7--------------|--------------------------|-------------------------|


                                                             
-------------------------|--------------------------14--13--|
-------------------------|----------14------14--12----------|
----7--7--7--7--7--7--7--|--12--14------14------------------|
-------------------------|----------------------------------|


                                                      
--------------------------|--------------------------|
--------------------------|--------------------------|
--------------------------|--------------------------|
--7--7--7--7--7--7--7--7--|--7--7--7--7--7--7--7--7--|


                                                      
--------------------------|--------------------------|
--------------------------|--------------------------|
--------------------------|--------------------------|
--5--5--5--5--5--5--5--5--|--5--5--5--5--5--5--7/-9--|


                                                        
--------------------------|----------------------------|
--------------------------|--------------11--11--------|
--------------------------|----------------------------|
--9--9--9--9--9--9--9--9--|--9--9--9--9----------9--9--|


                                                      
--------------------------|--------------------------|
--------------------------|--------------------------|
--------------------------|--------------------------|
--7--7--7--7--7--7--7--7--|--7--7--7--7--7--7--7--7--|


                                                      
--------------------------|--------------------------|
--------------------------|--------------------------|
--------------------------|--------------------------|
--5--5--5--5--5--5--5--5--|--5--5--5--5--5--5--7/-9--|


                                                           
--------------------------|-------------------------------|
--------------------------|-----11--11--11--11--11--11/---|
--------------------------|-------------------------------|
--9--9--9--9--9--9--9--9--|--9----------------------------|


                                                                              
--------------------------|-------------------------|------------------------|
--------------------------|-------------------------|-----------7----9----9--|
--------------------------|-------------------------|------------------------|
--7--7--7--7--7--7--7--7--|--7--7--7--7--7--7--7/---|--7--5--5---------------|


                                                                               
-----6----6--7--7--9----|--------------------------|-----------9-----9--------|
--9---------------------|--7--6-----7--6-----7--6--|-----7--7-----9-----9-----|
------------------------|--------7--------7--------|--7--------------------7--|
------------------------|--------------------------|--------------------------|


                                                                                
--------------------------|-------------------------|--------------------------|
--------------------------|-------------------------|--------------------------|
--7--7--7--7--7--7--7--7--|--7--7--7--7----7--5--7--|--7--7--7--7--7--7--7--7--|
--------------------------|-------------------------|--------------------------|


                                                                                
--------------------------|--------------------------|-------------------------|
--------------------7--6--|--------------------------|-------------------------|
--------5-----7--5--------|--7--7--7--7--7--7--7--7--|--7--7--7--7----7--5--7--|
--5--7-----7--------------|--------------------------|-------------------------|


                                                             
-------------------------|--------------------------14--13--|
-------------------------|----------14------14--12----------|
----7--7--7--7--7--7--7--|--12--14------14------------------|
-------------------------|----------------------------------|


                                                                                
--------------------------|-------------------------|--------------------------|
--------------------------|-------------------------|--------------------------|
--7--7--7--7--7--7--7--7--|--7--7--7--7----7--5--7--|--7--7--7--7--7--7--7--7--|
--------------------------|-------------------------|--------------------------|


                                                                                
--------------------------|--------------------------|-------------------------|
--------------------7--6--|--------------------------|-------------------------|
--------5-----7--5--------|--7--7--7--7--7--7--7--7--|--7--7--7--7----7--5--7--|
--5--7-----7--------------|--------------------------|-------------------------|


                                                             
-------------------------|--------------------------14--13--|
-------------------------|----------14------14--12----------|
----7--7--7--7--7--7--7--|--12--14------14------------------|
-------------------------|----------------------------------|


                                                      
--------------------------|--------------------------|
--------------------------|--------------------------|
--------------------------|--------------------------|
--7--7--7--7--7--7--7--7--|--7--7--7--7--7--7--7--7--|


                                                      
--------------------------|--------------------------|
--------------------------|--------------------------|
--------------------------|--------------------------|
--5--5--5--5--5--5--5--5--|--5--5--5--5--5--5--7/-9--|


                                                        
--------------------------|----------------------------|
--------------------------|--------------11--11--------|
--------------------------|----------------------------|
--9--9--9--9--9--9--9--9--|--9--9--9--9----------9--9--|


                                                      
--------------------------|--------------------------|
--------------------------|--------------------------|
--------------------------|--------------------------|
--7--7--7--7--7--7--7--7--|--7--7--7--7--7--7--7--7--|


                                                      
--------------------------|--------------------------|
--------------------------|--------------------------|
--------------------------|--------------------------|
--5--5--5--5--5--5--5--5--|--5--5--5--5--5--5--7/-9--|


                                                           
--------------------------|-------------------------------|
--------------------------|-----11--11--11--11--11--11/---|
--------------------------|-------------------------------|
--9--9--9--9--9--9--9--9--|--9----------------------------|


                                                                               
--------------------------|-------------------------|-------------------------|
--------------------------|-------------------------|-----------7----9--9--9--|
--------------------------|-------------------------|-------------------------|
--7--7--7--7--7--7--7--7--|--7--7--7--7--7--7--7/---|--7--5--5----------------|


                                                                              
-----6----6--7--7--9----|--------------------------|-----------------9-------|
--9---------------------|--7--6-----7--6-----7--6--|-----7--7--7--9-----9----|
------------------------|--------7--------7--------|--7----------------------|
------------------------|--------------------------|-------------------------|


                                                                              
-------------------|------------------|-------------------|------------------|
-------------------|------------------|-------------------|------------------|
-------------------|------------------|--3----------------|------------------|
--0----------------|------------------|-------------------|------------------|


                                                                              
-------------------|------------------|-------------------|------------------|
-------------------|------------------|-------------------|------------------|
--0----------------|------------------|-------------------|------------------|
-------------------|------------------|--1----------------|------------------|


                                                                              
-------------------|------------------|-------------------|------------------|
-------------------|------------------|-------------------|------------------|
-------------------|------------------|--3----------------|------------------|
--0----------------|------------------|-------------------|------------------|


                                                                  
-------------------|------------------|--------------------------|
-------------------|------------------|--3--3--3--3--3--3--3--3--|
--0----------------|------------------|--------------------------|
-------------------|------------------|--------------------------|


                                                                               
--------------------4----|--------------------------|-------------------------|
--------3-----5----------|--2-----------------------|-------------------------|
--3--3-----3-----5-------|-----2--------------------|-------------------------|
-------------------------|--------0--0--0--0--0--0--|--0--0--0--0--0--0--0----|


                                                     
--5-----------------------|-------------------------|
-----5--------------------|-------------------------|
--------3--3--3--3--3--3--|--3--3--3--3--3--3--3----|
--------------------------|-------------------------|


                                                       
----------------------------|-------------------------|
----------------------------|-------------------------|
--12--------12--0--0--0--0--|--0--0--0--0--0--0--0----|
------12--------------------|-------------------------|


                                                                               
-------------------------|--------------------3----|--------------------------|
--3-----3--3-------3-----|--3-----3-----5----------|--------------------------|
-----3----------3-----3--|-----3-----3-----5-------|--7--7--7--7--7--7--7--7--|
-------------------------|-------------------------|--------------------------|


                                                                                
-------------------------|--------5--5--5--5--5--5--|--5--5--5--5--5--5-----9--|
-------------------------|-----5--------------------|--------------------7-----|
--7--7--7--7--7--7--7----|--3-----------------------|--------------------------|
-------------------------|--------------------------|--------------------------|


                                                                              
-------------------------|-------------------------|-----5-------------------|
----7--7--7--7--7--7--7--|--7--7--7--7--7--7--7----|--3-----3--3----3--3--3--|
-------------------------|-------------------------|-------------------------|
-------------------------|-------------------------|-------------------------|


                                                                               
-------------------------|--6-----------------------|-------------------------|
--3--3--3--3--------5----|-----6--------------------|-------------------------|
-----------------5-------|--------4--4--4--4--4--4--|--4--4--4--4--4--4--4----|
--------------3----------|--------------------------|-------------------------|


                                                                                
--------------------------|-------------------------|--------------------------|
--------------------------|-------------------------|--4-----------------------|
--------------------------|-------------------------|-----4--------------------|
--5--5--5--5--5--5--5--5--|--5--5--5--5--5--5--5----|--------2--2--2--2--2--2--|


                                                      
--------------------------|--------7-----7-----7-----|
--------------------------|-----7-----7-----7-----7--|
--------------------------|--5-----------------------|
--2--2--2--2--2--2--2--2--|--------------------------|


                                                                        
--7-----7-----7-----7-----|------------------|--------------------|----|
-----7-----7-----7-----7--|------------------|--------------------|----|
--------------------------|------------------|--------------------|----|
--------------------------|------------------|--------------0--0--|----|


                                                                    
--------------------------|-------------------|--------------------|
--------------------7--6--|-------------------|--------------------|
--------5-----7--5--------|--7----------------|--------------------|
--5--7-----7--------------|-------------------|--------------0--0--|


                                                                       
------------------|--------------------------|------------------------|
------------------|--------------------7--6--|------------------------|
------------------|--------5-----7--5--------|--7----7----7--7--7--7--|
------------------|--5--7-----7--------------|------------------------|


                                                      
--------------------------|--------------------------|
--------------------------|--------------------------|
--7--7--7--7--7--7--5--7--|--------7--7--7--7--7--7--|
--------------------------|--0--0--------------------|


                                                      
--------------------------|--------------------------|
--------------------7--6--|--------------------------|
--------5-----7--5--------|--7--7--7--7--7--7--7--7--|
--5--7-----7--------------|--------------------------|


                                                     
--------------------------|-------------------------|
--------------------------|-------------------------|
--7--7--7--7--7--7--5--7--|--7--7--7--7--7--7--7----|
--------------------------|-------------------------|


                                                              
--------------------------14--13--|--------------------------|
----------14------14--12----------|--------------------------|
--12--14------14------------------|--------------------------|
----------------------------------|--7--7--7--7--7--7--7--7--|


                                                      
--------------------------|--------------------------|
--------------------------|--------------------------|
--------------------------|--------------------------|
--7--7--7--7--7--7--7--7--|--5--5--5--5--5--5--5--5--|


                                                      
--------------------------|--------------------------|
--------------------------|--------------------------|
--------------------------|--------------------------|
--5--5--5--5--5--5--7/-9--|--9--9--9--9--9--9--9--9--|


                                                        
----------------------------|--------------------------|
--------------11--11--------|--------------------------|
----------------------------|--------------------------|
--9--9--9--9----------9--9--|--7--7--7--7--7--7--7--7--|


                                                      
--------------------------|--------------------------|
--------------------------|--------------------------|
--------------------------|--------------------------|
--7--7--7--7--7--7--7--7--|--5--5--5--5--5--5--5--5--|


                                                      
--------------------------|--------------------------|
--------------------------|--------------------------|
--------------------------|--------------------------|
--5--5--5--5--5--5--7/-9--|--9--9--9--9--9--9--9--9--|


                                                           
-------------------------------|--------------------------|
-----11--11--11--11--11--11/---|--------------------------|
-------------------------------|--------------------------|
--9----------------------------|--7--7--7--7--7--7--7--7--|


                                                                            
-------------------------|------------------------|-----6----6--7--7--9----|
-------------------------|-----------7----9----9--|--9---------------------|
-------------------------|------------------------|------------------------|
--7--7--7--7--7--7--7/---|--7--5--5---------------|------------------------|


                                                                                
--------------------------|-----------9-------------|--------------------------|
--7--6-----7--6-----7--6--|--7--7--9-----9--7-------|--------------------------|
--------7--------7--------|--------------------7----|--7--7--7--7--7--7--7--7--|
--------------------------|-------------------------|--------------------------|


                                                                               
-------------------------|--------------------------|-------------------------|
-------------------------|--------------------------|-------------------------|
--7--7--7--7--7--7--7----|--3--3--3--3--3--3--3--3--|--3--3--3--3--3--3--3/---|
-------------------------|--------------------------|-------------------------|


                                                                    
----------------------------------|--------------------------------|
----------------------------------|--------------------------------|
--12--12--12--12--12--12--12--12--|--12--12--12--12--12--12--12----|
----------------------------------|--------------------------------|


                                                     
--------------------------|-------------------------|
--------------------------|-------------------------|
--8--8--8--8--8--8--8--8--|--8--8--8--8--8--8--8----|
--------------------------|-------------------------|


                                                               
----------------------------|---------------------------------|
----------------------------|--------------------------12--0--|
--7--7--7--9--9--9--10--10--|--10--12--12--12--14--14---------|
----------------------------|---------------------------------|


                                                          
--------------------------|------------------------------|
--------------------------|------------------------------|
--3--3--3--5--5--5--7--7--|--7--9--9--9--10--10--12--12--|
--------------------------|------------------------------|


                                                                      
----------------------------------|--------------------------12--12--|
----------------------------------|------12--12--12--14--14----------|
--12--12--12--14--14--14--15--15--|--15------------------------------|
----------------------------------|----------------------------------|


                                                                    
--10--10--10--12--12--12--14--14--|--14--16--16--16--17--17--17----|
----------------------------------|--------------------------------|
----------------------------------|--------------------------------|
----------------------------------|--------------------------------|


                                                                           
--------------------------|--------------------9-----|--9/---------------|
--7--6-----7--6-----7--6--|-----7--6-----7/-9-----9--|-------------------|
--------7--------7--------|--7--------7--------------|-------------------|
--------------------------|--------------------------|-------------------|





Comments


Popular Iron Maiden tabs & chords
Legacy Bass Tabs
The Edge Of Darkness Bass Tabs
Coming Home Tabs
Different World 2 Tabs
Ghost Of The Navigator 2 Tabs
Rainmaker Riff Tabs
Rime Of The Ancient Mariner 1 Tabs
Sanctuary Tabs
Sun And Steel 2 Tabs
Hallowed Be Thy Name Ukulele


Song lyrics



↑ Back to top | Tablatures and chords are parodies/interpretations of the original songs. You may use it for private study, scholarship, research or language learning purposes only
© 2014 AZChords.com Contact us | Privacy policy | DMCA | Add/correct tabs | Request tabs | Top 50 tabs