» » »

Iron Maiden, Holy Smoke Tabs (ver.5)

Artists:  A B C D E F G H I J K L M N O P Q R S T U V W X Y Z # 

Holy Smoke Tabs (ver.5)

Iron Maiden Tabs
 Rating:
4/5 (4 votes)
Holy Smoke lessons Tabs too difficult? Try these video lessons and learn fast
                Holy Smoke solo.

this is the second solo played by dave murray. sorry but i don't know 
janick's. i think this is a good place to start from though. 


E-----------------------14-----------| 
B-14-----------------14----17p14-----| 
G-14-------------16b-------------16b-| 
D--------16p-14----------------------| 
A------------------------------------| 
E------------------------------------| 



E-----14----------14----------14----------14-------| 
B--14----17p14-------17p14-------17p14-------17p14-| 
G--------------16b---------16b---------16b---------| 
D--------------------------------------------------| 
A--------------------------------------------------| 
E--------------------------------------------------| 



E-----14----------14---------------------|----------17b---17~-------| 
B--------17p14-------17p14-----------17r-|----17p14-----------------| 
G--16b---------16b-----------16r--14-----|--------------------------| 
D----------------------------------------|--------------------------| 
A----------------------------------------|--------------------------| 
E----------------------------------------|--------------------------| 

E--------------------|----------------------------|---------------------| 
B--17~---------------|---14----14-----------------|---------------------| 
G--16b---------------|------14----------14\-------|----4b-----------4p2-| 
D--------------------|--------------16------------|---------------------| 
A--------------------|----------------------------|---------------------| 
E--------------------|----------------------------|---------------------| 

E-------------------------|----------------------------------| 
B-------------------------|--------10------9------10--9h10p9-| 
G------------2h4~---------|----11----------------------------| 
D--4p2---2h4--------------|----------------------------------| 
A------4------------------|----------------------------------| 
E-------------------------|----------------------------------| 

E----------------------------|-------------------------------12--| 
B------9---------------------|---------------------10--12b-------| 
G--11-----10/11--------------|--------------9/-11----------------| 
D---------------9r--7-9r-----|-------7/-11-----------------------| 
A----------------------------|----9------------------------------| 
E----------------------------|-----------------------------------| 

E----------12------------|-------------------------------------------------|
B----12b-------12b-------|-19p14h17/19p14h17/19p14h17/19p14h17/19p14h17/19p| 
G------------------------|-------------------------------------------------| 
D------------------------|-------------------------------------------------| 
A------------------------|-------------------------------------------------| 
E------------------------|-------------------------------------------------| 

E-----------------------------------------17-| 
B--14h17/19p14h17/19p14h17/19p14h17p14-------| 
G--------------------------------------------| 
D--------------------------------------------| 
A--------------------------------------------| 
E--------------------------------------------| 

E--14h17p14-----14------14------------------|----------------------17--19r-| 
B-----------17------17b----17p14-17p14------|------------------------------| 
G---------------------------------------16r-|----14------14\---------------| 
D-------------------------------------------|--------16--------------------| 
A-------------------------------------------|------------------------------| 
E-------------------------------------------|------------------------------| 

E----------------17--|--19b---------------|
B--------------------|--------------------| 
G--------------------|--------------------|
D--------------------|--------------------| 
A--------------------|--------------------|
E--------------------|--------------------|
            
Submit corrections

comments powered by Disqus
↑ Back to top | Iron Maiden Tabs for Holy Smoke. Lyrics for acoustic guitar and electric guitar. Tablatures and chords are parodies/interpretations of the original songs. You may use it for private study, scholarship, research or language learning purposes only