» » »

Iron Maiden, Gates Of Tomorrow Tabs (ver.2)

Artists:  A B C D E F G H I J K L M N O P Q R S T U V W X Y Z # 

Gates Of Tomorrow Tabs (ver.2)

Iron Maiden Tabs
 Rating:
4/5 (4 votes)
Gates Of Tomorrow lessons Tabs too difficult? Try these video lessons and learn fast
1
                This is the most underrated song from Dance of Death, i think this is how it goes
Guitar 1
|---------------------------------------------------------|
|--9-7-7-9-7-7-10-7-7-9-7-7-10-7-9-7-7\\\-----------------|
|--7-7-7-7-7-7-7--7-7-7-7-7-7--7-7-7-7\\\-----------------|
|---------------------------------------------------------|
|---------------------------------------------------------|
|---------------------------------------------------------|
Guitar 1
|---------------------------------------------------------|
|--5-5-5-7-5-5-8-5-5-7-5-5-8-5-7-///----------------------|
|--5-5-5-5-5-5-5-5-5-5-5-5-7-5-5-///----------------------|
|---------------------------------------------------------|
|---------------------------------------------------------|
|---------------------------------------------------------|
Guitars 2 and 3 X2
|-------------------|
|-4---------------6-|
|-3---------------5-|
|-1---------------3-|
|-1---------------3-|
|-1---------------3-|

Over Inrto again
I'm not so sure of the strum pattern, you may have to work
|-------------------|
|-------------------|
|-------------------|
|5----------------3-|
|5----------------3-|
|5---8-10--8-10-8-3-| X2

|-------------------|
|4----------------6-|
|3----------------5-|
|1----------------3-|
|1----------------3-|
|1----------------3-| X2


I call this bit the Hard Intro
Intro Notes again but this time over the following, each chord is strummed 8 times

|-----------------------------|
|-----------------------------|
|-----------------------------|
|5---3---5---3---1---3---1---3|
|5---3---5---3---1---3---1---3|
|5---3---5---3---1---3---1---3|

Verse: Repeat chords twice but Guitar 1 or 3 should play this Riff

|----3--7--8--10--8--5--1--5--6--8----------(x2)----------|
|---------------------------------------------------------|
|---------------------------------------------------------|
|---------------------------------------------------------|
|---------------------------------------------------------|
|---------------------------------------------------------|

|---------------------------------------------------------|
|---4--8--10--11--10--8--6--9--10--11--13----(x2)---------|
|---------------------------------------------------------|
|---------------------------------------------------------|
|---------------------------------------------------------|
|---------------------------------------------------------|

Bridge

|------------------------------------------|
|8--10--12------8--10--12-------8--10--12--|
|8--10--12------8--10--12-------8--10--12X8|
|8--10--12------8--10--12-------8--10--12--|
|6---8--10------6---8--10-------6---8--10--|
|------------------------------------------|
Bridge Continued

|-----------------|
|8--10---7--------|
|8--10---7---3--5-|
|8--10---7---1--3-|
|6---8---5---1--3-|
|--------0---1--3-|

Chorus *1st and 1st Fret, not 11th

|---------------------------------------------|
|------------------------------5-5-5-5--------|
|------------------------------5-5-5-5--------|
|5-5-5-5-55-1-1-1-1-11-3-3-3-3-5-5-5-5--------|
|5-5-5-5-55-1-1-1-1-11-3-3-3-3-3-3-3-3-5-5-5-5|
|5-5-5-5-55-1-1-1-1-11-3-3-3-3---------5-5-5-5|
X2

Riff

|-------------------------------------|
|11-10---------11-10------11-10-------|
|------12------------12-10------10h12~|
|---------13--------------------------|
|-------------------------------------|
|-------------------------------------| X4

Harmony which comes in after every secong riff

|10-8-6-3-10-8-6-5-10-8-5-7-|
|---------------------------|
|---------------------------|
|---------------------------|
|---------------------------|
|---------------------------|

Solo Backing, i am not good enough to do the solo

|5-5-5-5-----5-5-5-5-----5-5-5-5-------------|
|3-3-3-3-----3-3-3-3-----3-3-3-3-5-5-5-5-----|
|2-2-2-2-----2-2-2-2-----2-2-2-2-5-5-5-5-5-5-|
|0-0-0-0-3-5-0-0-0-0-5-3-0-0-0-0-5-5-5-5-3-3-|
|0-0-0-0-3-5-0-0-0-0-5-3-0-0-0-0-3-3-3-3-3-3-|
|0-0-0-0-3-5-0-0-0-0-5-3-0-0-0-0---------3-3-|

On the last Bar instead of a the C and F

|13---|
|11---|
|10---|
|-8---|
|-8---|
|-8---| Hold for this bit of the solo

Tremelo picked notes
|------------------------------------|
|13-12-10-13-12-10-13-12-10-13-12-10-|
|------------------------------------|
|------------------------------------|
|------------------------------------|
|------------------------------------|

Bridge

Chorus

Hard Intro X2

|-------------------|
|-------------------|
|-------------------|
|5----------------3-|
|5---8-10--8-10-8-3-|
|5---8-10--8-10-8-3-| End, hope you enjoy and i hope it is all correct
            
Submit corrections

comments powered by Disqus
↑ Back to top | Iron Maiden Tabs for Gates Of Tomorrow. Lyrics for acoustic guitar and electric guitar. 1 Tablatures and chords are parodies/interpretations of the original songs. You may use it for private study, scholarship, research or language learning purposes only