>
 >
Flash Of The Blade 2

Flash Of The Blade 2 Guitar Tabs

Iron Maiden - Flash Of The Blade 2 chords, tabs, tablatures, lyrics

Guitar lessons | Add/correct | Request | Top 50 tabs Artists:  A B C D E F G H I J K L M N O P Q R S T U V W X Y Z 0-9

Flash Of The Blade 2 Guitar Tabs – Iron Maiden

CD, Sheet music, Poster

Do you like Flash Of The Blade 2? Share with your friends now
Bass TabsDrum TabsTabsTabs v2Tabs v3
                               FLASH OF THE BLADE
                           As recorded by Iron Maiden
                        (From the 1984 Album POWERSLAVE)


Gtr I (E A D G B E) - 'Dave Murray'
Gtr II (E A D G B E) - 'Adrian Smith'
Gtr III (E A D G B E) - 'dist electric solo'

   Intro
    Q=216
   2/2
    Gtr I
||------------------|-----------------|
||o-----------------|-----------------|
||------------------|-----------------|
||--7p0-7p0-7p0-7p0-|-7p0-7p0-7p0-7p0-|
||o-----------------|-----------------|
||------------------|-----------------|


                                          4x
|-----------------|-----------------------||
|-----------------|----------------------o||
|-----------------|-----------------------||
|-8p0-8p0-8p0-8p0-|-10p0-10p0-10p0-10p0---||
|-----------------|----------------------o||
|-----------------|-----------------------||


||------------------|-------------------|
||o-----------------|-------------------|
||------------------|-------------------|
||--7p0-7p0-7p0-7p0-|--7p=0-7p0-7p0-7p0-|
||o-----------------|-------------------|
||------------------|-------------------|
|
|   Gtr II
||------------------|-------------------|
||o-----------------|-------------------|
||------------------|-------------------|
||--7---------------|-(7)---------------|
||o-5---------------|-(5)---------------|
||--5---------------|-(5)---------------|


|-----------------|----------------------|
|-----------------|----------------------|
|-----------------|----------------------|
|-8p0-8p0-8p0-8p0-|-10p0-10p0-10p0-10p0--|
|-----------------|----------------------|
|-----------------|----------------------|
|
|-----------------|----------------------|
|-----------------|----------------------|
|-----------------|----------------------|
|-8---------------|--5-------------------|
|-6---------------|--3-------------------|
|-6---------------|--3-------------------|


|-----------------|-------------------|
|-----------------|-------------------|
|-----------------|-------------------|
|-7p0-7p0-7p0-7p0-|--7p=0-7p0-7p0-7p0-|
|-----------------|-------------------|
|-----------------|-------------------|
|
|-----------------|-------------------|
|-----------------|-------------------|
|-----------------|-------------------|
|-7---------------|-(7)---------------|
|-5---------------|-(5)---------------|
|-5---------------|-(5)---------------|


|-----------------|----------------------||
|-----------------|---------------------o||
|-----------------|----------------------||
|-8p0-8p0-8p0-8p0-|-10p0-10p0-10p0-10p0--||
|-----------------|---------------------o||
|-----------------|----------------------||
|
|-----------------|----------------------||
|-----------------|---------------------o||
|-----------------|----------------------||
|-3---------------|--5-------------------||
|-1---------------|--3------------------o||
|-1---------------|--3-------------------||


   Verse
    Gtrs I, II
||------------------|-----------------|-----------------|------------------|
||o-----------------|-----------------|-----------------|------------------|
||------------------|-----------------|-----------------|------------------|
||--2---------------|-----------------|-5---------------|-4----------------|
||o-0-0-0-0-0-0-0-0-|-0-0-0-0-0-0-0-0-|-3-3-3-3-3-3-3-3-|-2-2-2-2-2-2-2-2--|
||------------------|-----------------|-----------------|------------------|


|-----------------|-----------------|-----------------|---------||
|-----------------|-----------------|-----------------|--------o||
|-----------------|-----------------|-----------------|---------||
|-3---------------|-----------------|---------------2-|-(2)-----||
|-1-1-1-1-1-1-1-1-|-1-1-1-1-1-1-1-1-|---------3-2---0-|-(0)----o||
|-----------------|-----------------|-1-0-3-0-----3---|---------||


   Chorus
||-----------|------------|----------|-----------|
||o----------|------------|----------|-----------|
||-----------|------------|----------|-----------|
||--7--------|-7---6---7--|-9--------|-9---8---9-|
||o-5--------|-5---4---5--|-7--------|-7---6---7-|
||-----------|------------|----------|-----------|


|----------|------------|-----------|-------||
|----------|------------|-----------|------o||
|----------|------------|-----------|-------||
|-5--------|-5---4---5--|-----------|-------||
|-3--------|-3---2---3--|-5----5----|-2----o||
|----------|------------|-3----2----|-0-----||


||------------------|-----------------|-----------------|----------------------|
||o-----------------|-----------------|-----------------|----------------------|
||------------------|-----------------|-----------------|----------------------|
||--7p0-7p0-7p0-7p0-|-7p0-7p0-7p0-7p0-|-8p0-8p0-8p0-8p0-|-10p0-10p0-10p0-10p0--|
||o-----------------|-----------------|-----------------|----------------------|
||------------------|-----------------|-----------------|----------------------|


|-----------------|-----------------|-----------------|----------------------||
|-----------------|-----------------|-----------------|---------------------o||
|-----------------|-----------------|-----------------|----------------------||
|-7p0-7p0-7p0-7p0-|-7p0-7p0-7p0-7p0-|-8p0-8p0-8p0-8p0-|-10p0-10p0-10p0-10p0--||
|-----------------|-----------------|-----------------|---------------------o||
|-----------------|-----------------|-----------------|----------------------||


   Verse
||------------------|-----------------|-----------------|------------------|
||o-----------------|-----------------|-----------------|------------------|
||------------------|-----------------|-----------------|------------------|
||--2---------------|-----------------|-5---------------|-4----------------|
||o-0-0-0-0-0-0-0-0-|-0-0-0-0-0-0-0-0-|-3-3-3-3-3-3-3-3-|-2-2-2-2-2-2-2-2--|
||------------------|-----------------|-----------------|------------------|


|-----------------|-----------------|-----------------|---------||
|-----------------|-----------------|-----------------|--------o||
|-----------------|-----------------|-----------------|---------||
|-3---------------|-----------------|---------------2-|-(2)-----||
|-1-1-1-1-1-1-1-1-|-1-1-1-1-1-1-1-1-|---------3-2---0-|-(0)----o||
|-----------------|-----------------|-1-0-3-0-----3---|---------||


   Chorus
||-----------|------------|----------|-----------|
||o----------|------------|----------|-----------|
||-----------|------------|----------|-----------|
||--7--------|-7---6---7--|-9--------|-9---8---9-|
||o-5--------|-5---4---5--|-7--------|-7---6---7-|
||-----------|------------|----------|-----------|


|----------|------------|-----------|-------||
|----------|------------|-----------|------o||
|----------|------------|-----------|-------||
|-5--------|-5---4---5--|-----------|-------||
|-3--------|-3---2---3--|-5----5----|-2----o||
|----------|------------|-3----2----|-0-----||


 Harmony Guitar Solo
  $
  Gtr I
|-5-0-5--7--8--7-5-0-|-5-0-5--7--8--7-5-0-|
|--------------------|--------------------|
|--------------------|--------------------|
|--------------------|--------------------|
|--------------------|--------------------|
|--------------------|--------------------|
|
| Gtr II
|-8-0-8-10-12-10-8-0-|-8-0-8-10-12-10-8-0-|
|--------------------|--------------------|
|--------------------|--------------------|
|--------------------|--------------------|
|--------------------|--------------------|
|--------------------|--------------------|
|
| Gtr III
| ~~~~~~~~~~~~~~~~~~~~~~~
|--------------------|--------------------|
|--------------------|--------------------|
|--------------------|-5------------------|
|-7------------------|--------------------|
|--------------------|--------------------|
|--------------------|--------------------|


|--7-0----7----8-10--8----7---0-|-10--8--7--8--8--7-5-0-|
|-------------------------------|-----------------------|
|-------------------------------|-----------------------|
|-------------------------------|-----------------------|
|-------------------------------|-----------------------|
|-------------------------------|-----------------------|
|
|-10-0---10---12-13-12---10---0-|-13-12-10-12-12-10-8-0-|
|-------------------------------|-----------------------|
|-------------------------------|-----------------------|
|-------------------------------|-----------------------|
|-------------------------------|-----------------------|
|-------------------------------|-----------------------|
|
|                                  ~~
|-------------------------------|-----------------------|
|--5---5----5-----5-------------|-----------------------|
|----------------------7----5---|--4--------------------|
|-------------------------------|-----------------------|
|-------------------------------|-----------------------|
|-------------------------------|-----------------------|


|-5-0-5--7--8--7-5-0-|-5-0-5--7--8--7-5-0-|
|--------------------|--------------------|
|--------------------|--------------------|
|--------------------|--------------------|
|--------------------|--------------------|
|--------------------|--------------------|
|
|-8-0-8-10-12-10-8-0-|-8-0-8-10-12-10-8-0-|
|--------------------|--------------------|
|--------------------|--------------------|
|--------------------|--------------------|
|--------------------|--------------------|
|--------------------|--------------------|
|
| ~~~~~~~~~~~~~~~~~~~~~~~
|--------------------|--------------------|
|--------------------|--------------------|
|--------------------|-5------------------|
|-7------------------|--------------------|
|--------------------|--------------------|
|--------------------|--------------------|


|--7-0----7----8-10--8----7---0-|-10--8--7--8--8--7----5---0-|
|-------------------------------|----------------------------|
|-------------------------------|----------------------------|
|-------------------------------|----------------------------|
|-------------------------------|----------------------------|
|-------------------------------|----------------------------|
|
|-10-0---10---12-13-12---10---0-|-13-12-10-12-12-10----8---0-|
|-------------------------------|----------------------------|
|-------------------------------|----------------------------|
|-------------------------------|----------------------------|
|-------------------------------|----------------------------|
|-------------------------------|----------------------------|
|
|                                  ~~
|-------------------------------|----------------------------|
|--5---5----5-----5-------------|----------------------------|
|----------------------7----5---|------------------------9---|
|-------------------------------|--6----------------10-------|
|-------------------------------|----------------------------|
|-------------------------------|----------------------------|


|--5-0-5--7--8--7----5----0-|--5-0-5--7--8--7--5-0-|
|---------------------------|----------------------|
|---------------------------|----------------------|
|---------------------------|----------------------|
|---------------------------|----------------------|
|---------------------------|----------------------|
|
|--8-0-8-10-12-10----8----0-|--8-0-8-10-12-10--8-0-|
|---------------------------|----------------------|
|---------------------------|----------------------|
|---------------------------|----------------------|
|---------------------------|----------------------|
|---------------------------|----------------------|
|
|  ~~                          ~~
|---------------------------|----------------------|
|-10------------------------|-13--------------13---|
|----------------------14---|-----------14---------|
|-----------------14--------|----------------------|
|---------------------------|----------------------|
|---------------------------|----------------------|


|--7-0-----7-----8-10--8-----7----0-|-10--8--7--8--8--7----5---0--|
|-----------------------------------|-----------------------------|
|-----------------------------------|-----------------------------|
|-----------------------------------|-----------------------------|
|-----------------------------------|-----------------------------|
|-----------------------------------|-----------------------------|
|
|-10-0----10----12-13-12----10----0-|-13-12-10-12-12-10----8---0--|
|-----------------------------------|-----------------------------|
|-----------------------------------|-----------------------------|
|-----------------------------------|-----------------------------|
|-----------------------------------|-----------------------------|
|-----------------------------------|-----------------------------|
|
|-12---12----12----12---------------|-----------------------------|
|------------------------15----13---|-----------------------------|
|-----------------------------------|-13---------------------9----|
|-----------------------------------|-------------------10--------|
|-----------------------------------|-----------------------------|
|-----------------------------------|-----------------------------|


|--5-0-5--7--8--7----5----0-|--5-0-5--7---8---7----5----0-|
|---------------------------|-----------------------------|
|---------------------------|-----------------------------|
|---------------------------|-----------------------------|
|---------------------------|-----------------------------|
|---------------------------|-----------------------------|
|
|--8-0-8-10-12-10----8----0-|--8-0-8-10--12--10----8----0-|
|---------------------------|-----------------------------|
|---------------------------|-----------------------------|
|---------------------------|-----------------------------|
|---------------------------|-----------------------------|
|---------------------------|-----------------------------|
|
|  ~~
|---------------------------|-----------------------------|
|-10------------------------|-13--------(13)--------------|
|----------------------14---|-------------------14---13---|
|-----------------14--------|-----------------------------|
|---------------------------|-----------------------------|
|---------------------------|-----------------------------|


                              To Coda
|--8--7-5-----------|-----------------||
|----------8--6-5---|-----------------||
|-------------------|--7-5-4----------||
|-------------------|---------7-5-3---||
|-------------------|-----------------||
|-------------------|-----------------||
|
|-12-10-8-----------|-----------------||
|---------12-10-8---|-----------------||
|-------------------|-10-9-7----------||
|-------------------|--------10-9-7---||
|-------------------|-----------------||
|-------------------|-----------------||
|
|-------------------|-----------------||
|-------------------|-----------------||
|-------------------|-----------------||
|-------------------|-----------------||
|-------------------|-----------------||
|-------------------|-----------------||


                                                       ~
|--------------|--------------|----------------------|------|
|--------------|-6h8---7------|-10b16-(10)---10---8--|-7----|
|-2h4---2------|-----------7--|----------------------|------|
|-----------4--|--------------|----------------------|------|
|--------------|--------------|----------------------|------|
|--------------|--------------|----------------------|------|
|
|                                                      ~
|--------------|--------------|----------------------|------|
|--------------|--------------|--7b8---(7)----7---5--|------|
|--------------|-7h9---7------|----------------------|-7----|
|-3h5---4------|-----------9--|----------------------|------|
|-----------5--|--------------|----------------------|------|
|--------------|--------------|----------------------|------|


                                                           ~~
|--------------|----------------|-----------------------|-------|
|--------------|-8h10---9-------|-15b21-(15)---15---14--|-12----|
|-4h6---4------|-------------9--|-----------------------|-------|
|-----------6--|----------------|-----------------------|-------|
|--------------|----------------|-----------------------|-------|
|--------------|----------------|-----------------------|-------|
|
|                                                          ~~
|--------------|----------------|-----------------------|-------|
|--------------|----------------|-12b18-(12)---12---10--|--9----|
|--------------|-7h=9---9-------|-----------------------|-------|
|-5h7---6------|------------12--|-----------------------|-------|
|-----------7--|----------------|-----------------------|-------|
|--------------|----------------|-----------------------|-------|


                                              ~
|--------------|--------------|-------------|------|
|-6h8---7------|-6h8---7------|--8---7------|------|
|-----------7--|-----------7--|----------7--|-5----|
|--------------|--------------|-------------|------|
|--------------|--------------|-------------|------|
|--------------|--------------|-------------|------|
|
|                                             ~
|--------------|--------------|-------------|------|
|-6h8---7------|-----------7--|----------7--|-8----|
|-----------7--|-5-7---7------|--5---7------|------|
|--------------|--------------|-------------|------|
|--------------|--------------|-------------|------|
|--------------|--------------|-------------|------|


                                                       ~
|--------------|--------------|----------------------|------|
|--------------|-6h8---7------|-10b16-(10)---10---8--|-7----|
|-2h4---2------|-----------7--|----------------------|------|
|-----------4--|--------------|----------------------|------|
|--------------|--------------|----------------------|------|
|--------------|--------------|----------------------|------|
|
|                                                      ~
|--------------|--------------|----------------------|------|
|--------------|--------------|--7b8---(7)----7---5--|------|
|--------------|-7h9---7------|----------------------|-7----|
|-3h5---4------|-----------9--|----------------------|------|
|-----------5--|--------------|----------------------|------|
|--------------|--------------|----------------------|------|


                                                       ~
|--------------|--------------|----------------------|------|
|--------------|-6h8---7------|-10b16-(10)---10---8--|-7----|
|-2h4---2------|-----------7--|----------------------|------|
|-----------4--|--------------|----------------------|------|
|--------------|--------------|----------------------|------|
|--------------|--------------|----------------------|------|
|
|                                                      ~
|--------------|--------------|----------------------|------|
|--------------|--------------|--7b8---(7)----7---5--|------|
|--------------|-7h9---7------|----------------------|-7----|
|-3h5---4------|-----------9--|----------------------|------|
|-----------5--|--------------|----------------------|------|
|--------------|--------------|----------------------|------|


                                                           ~~
|--------------|----------------|-----------------------|-------|
|--------------|-8h10---9-------|-15b21-(15)---15---14--|-12----|
|-4h6---4------|-------------9--|-----------------------|-------|
|-----------6--|----------------|-----------------------|-------|
|--------------|----------------|-----------------------|-------|
|--------------|----------------|-----------------------|-------|
|
|                                                          ~~
|--------------|----------------|-----------------------|-------|
|--------------|----------------|-12b18-(12)---12---10--|--9----|
|--------------|-7h=9---9-------|-----------------------|-------|
|-5h7---6------|------------11--|-----------------------|-------|
|-----------7--|----------------|-----------------------|-------|
|--------------|----------------|-----------------------|-------|


|--------------|--------------|------------|
|-6h8---7------|-6h8---7------|-8---7------|
|-----------7--|-----------7--|---------7--|
|--------------|--------------|------------|
|--------------|--------------|------------|
|--------------|--------------|------------|
|
|--------------|--------------|------------|
|-6h8---7------|-----------7--|---------7--|
|-----------7--|-3h5---7------|-5---7------|
|--------------|--------------|------------|
|--------------|--------------|------------|
|--------------|--------------|------------|


          ~~~~
|-12b18-(12)--------|----------------|
|-------------------|----------------|
|-------------------|-2h4---2--------|
|-------------------|-----------4----|
|-------------------|----------------|
|-------------------|----------------|
|
|         ~~~~
|-------------------|----------------|
|-13b19-(13)--------|----------------|
|-------------------|----------------|
|-------------------|-3h5---4--------|
|-------------------|-----------5----|
|-------------------|----------------|


                                    D.S. al Coda
                                        ~
|--------------|----------------------|-----------||
|-6h8---7------|-10b16-(10)---10---8--|-7---------||
|-----------7--|----------------------|-----------||
|--------------|----------------------|-----------||
|--------------|----------------------|-----------||
|--------------|----------------------|-----------||
|
|                                       ~
|--------------|----------------------|-----------||
|--------------|--7b8---(7)----7---5--|-----------||
|-7h9---7------|----------------------|-7---------||
|-----------9--|----------------------|-----------||
|--------------|----------------------|-----------||
|--------------|----------------------|-----------||


   Chorus
    &
    Gtrs I, II
||-----------|------------|----------|-------------|
||o----------|------------|----------|-------------|
||-----------|------------|----------|-------------|
||--7--------|-7---6---7--|-9--------|-9---8---9---|
||o-5--------|-5---4---5--|-7--------|-7---6---7---|
||-----------|------------|----------|-------------|


                                            3x
|----------|------------|-----------|-------||
|----------|------------|-----------|------o||
|----------|------------|-----------|-------||
|-5--------|-5---4---5--|-----------|-------||
|-3--------|-3---2---3--|-5----5----|-2----o||
|----------|------------|-3----2----|-0-----||


   Outro
||------------------|-----------------|
||o-----------------|-----------------|
||------------------|-----------------|
||--7-0-7-0-7-0-7-0-|-7-0-7-0-7-0-7-0-|
||o-----------------|-----------------|
||------------------|-----------------|


                                         5x
|-----------------|----------------------||----------*|
|-----------------|---------------------o||----------*|
|-----------------|----------------------||----------*|
|-8-0-8-0-8-0-8-0-|-10-0-10-0-10-0-10-0--||-7--------*|
|-----------------|---------------------o||-5--------*|
|-----------------|----------------------||----------*|


Tablature Legend
----------------
 h   - hammer-on
 p   - pull-off
 b   - bend
 pb  - pre-bend
 r   - bend release (if no number after the r, then release immediately)
 /\  - slide into or out of (from/to "nowhere")
 s   - legato slide
 S   - shift slide
  - natural harmonic
[n]  - artificial harmonic
n(n) - tapped harmonic
 ~   - vibrato
 tr  - trill
 T   - tap
 TP  - trem. picking
 PM  - palm muting
\n/  - tremolo bar dip; n = amount to dip
 \n  - tremolo bar down
 n/  - tremolo bar up
/n\  - tremolo bar inverted dip
 =   - hold bend; also acts as connecting device for hammers/pulls
 <>  - volume swell (louder/softer)
 x   - on rhythm slash represents muted slash
 o   - on rhythm slash represents single note slash

Misc Legend
-----------
 |  - bar
||  - double bar
||o - repeat start
o|| - repeat end
*|  - double bar (ending)
 :  - bar (freetime)
 $  - Segno
 &  - Coda
Tempo markers -  = BPM(8/16=s8/s16), where s8 = swing 8ths, s16 = swing 16ths





Comments


Popular Iron Maiden tabs & chords
Age Of Innocence Bass Tabs
Back In The Village Bass Tabs
Can I Play With Madness Bass Tabs
My Generation 4 Bass Tabs
Phantoom Of The Opera Bass Tabs
Back In The Village 2 Tabs
Montsegur 1 Tabs
Revelations 1 Tabs
Run Silent, Run Deep 1 Tabs
The Trooper 5 Tabs


Song lyrics



↑ Back to top | Tablatures and chords are parodies/interpretations of the original songs. You may use it for private study, scholarship, research or language learning purposes only
© 2014 AZChords.com Contact us | Privacy policy | DMCA | Add/correct tabs | Request tabs | Top 50 tabs