>
 >
Fear Of The Dark 5

Fear Of The Dark 5 Guitar Tabs

Iron Maiden - Fear Of The Dark 5 chords, tabs, tablatures, lyrics

Guitar lessons | Add/correct | Request | Top 50 tabs Artists:  A B C D E F G H I J K L M N O P Q R S T U V W X Y Z 0-9

Fear Of The Dark 5 Guitar Tabs – Iron Maiden

CD, Sheet music, Poster

Do you like Fear Of The Dark 5? Share with your friends now
Bass TabsBass Tabs v2ChordsChords v2Chords v3Drum TabsDrum Tabs v2TabsTabs v2Tabs v3Tabs v4Tabs v5Tabs v6Tabs v7Tabs v8Ukulele

                  Iron Maiden - Fear Of the Dark

This is only the guit 1 but...this is it..There's maybee some paste problem,
because it was on "Bloc-notes" first...anyway...


Guitar 1

Intro

E||--------------0-0-1-1-0-0-----0---|------------------0-0---------0---|
B||--3-3-----3-3-------------3-3-----|--1-1-----1-1-3-3-----3-3-1-1---1-|
G||------2-2-----------------------2-|------0-0-------------------------|
D||----------------------------------|----------------------------------|
A||----------------------------------|----------------------------------|
E||----------------------------------|----------------------------------|


--------------0-0-1-1-0-0-----0---|------------------0-0---------0---|
--3-3-----3-3-------------3-3-----|--1-1-----1-1-3-3-----3-3-1-1---1-|
------2-2-----------------------2-|------0-0-------------------------|
----------------------------------|----------------------------------|
----------------------------------|----------------------------------|
----------------------------------|----------------------------------|


----------------------------------|----------------------------------|
--------------0-0-1-1-0-0-----0---|------------------0-0---------0---|
--2-2-----2-2-------------2-2---2-|--0-0-----0-0-2-2-----2-2-0-0---0-|
------2-2-------------------------|------0-0-------------------------|
----------------------------------|----------------------------------|
----------------------------------|----------------------------------|


----------------------------------|----------------------------------|
--------------0-0-1-1-0-0-----0---|----------------------------------|
--2-2-----2-2-------------2-2---2-|--------------0-0-2-2-0-0-----2---|
------2-2-------------------------|--3-3-----3-3-------------3-3---3-|
----------------------------------|------3-3-------------------------|
----------------------------------|----------------------------------|

Acoustic part

-------------------0-|--1---3-1--0-------------|-----------1-----------0-1-|
--------------3------|-------------1------1----|-----1--1----3------3------|
------------2--------|------------------0------|--3---------------2--------|
---------------------|-------------------------|---------------------------|
---------------------|-------------------------|---------------------------|
---------------------|-------------------------|---------------------------|


-----3-1--0-----------|------------------0-1-|-----3-1--0---------------|
------------1---------|---------------3------|------------1------1------|
----------------------|-------------2--------|-----------------0----0-3-|
----------------------|----------------------|--------------------------|
----------------------|----------------------|--------------------------|
----------------------|----------------------|--------------------------|


-----------1-----------0-1-|----3-1---0----------15-|--------------------------|
------1-1----3------3------|------------1-----------|--------------------------|
--3---------------2--------|------------------------|--------------------------|
---------------------------|------------------------|------------7-0-7-0-7-0-7-|
---------------------------|------------------------|----------5---------------|
---------------------------|------------------------|--------------------------|


----------------------------------|----------------------------------|
----------------------------------|----------------------------------|
--------------------0---0---0---0-|------------0---0---2---2---2---2-|
----------------------------------|----3---3---------0---0---0---0---|
----8---8---8---8-----------------|------1---3---3-------------------|
--6---6---6---6---8---8---8---8---|--6-------------------------------|


----------------------------------|----------------------------------|
----------------------------------|----------------------------------|
--------------------0---0---0---0-|------------0---0---2---2---2---2-|
----3---3---3---3-----------------|----3---3---------0---0---0---0---|
--1---1---1---1---3---3---3---3---|--1---1---3---3-------------------|
----------------------------------|----------------------------------|


----------------------------------|----------------------------------|
----------------------------------|----1---1---3---3-----------------|
--------------------0---0---0---0-|----------0---0-----2---2---2---2-|
----3---3---3---3-----------------|--3---3-----------0---0---0---0---|
--1---1---1---1---3---3---3---3---|----------------------------------|
----------------------------------|----------------------------------|


----------------------------------|----------------------------------|
----------------------------------|----------------------------------|
--------------------0---0---0---0-|----0---0---0---0-----------------|
----3---3---3---3-----------------|--------------------3---3---3---3-|
--1---1---1---1---3---3---3---3---|--3---3---3---3---1---1---1---1---|
----------------------------------|----------------------------------|


----------------------------------|----------------------------------|
----------------------------------|----------------------------------|
----0---0---0---0---2---2---2---2-|----0---0---0---0-----------------|
------------------0---0---0---0---|--------------------3---3---3---3-|
--3---3---3---3-------------------|--3---3---3---3---1---1---1---1---|
----------------------------------|----------------------------------|


----------------------------------|----------------------------------|
----1---1---3---3-----------------|----------------------------------|
----------0---0-----2---2---2---2-|----2---2---2---2-----------------|
--3---3-----------0---0---0---0---|--0---0---0---0-----3---3---3---3-|
----------------------------------|------------------1---1---1---1---|
----------------------------------|----------------------------------|


----------------------------------|----------------------------------|
----------------------------------|----------------------------------|
----0---0---0---0---2---2---2---2-|----0---0---0---0-----------------|
------------------0---0---0---0---|--------------------3---3---3---3-|
--3---3---3---3-------------------|--3---3---3---3---1---1---1---1---|
----------------------------------|----------------------------------|


----------------------------------|-----------------------|------------------|
----1---1---3---3-----------------|-----------------------|------------------|
----------0---0-----2---2---2---2-|----2---2--------------|------------------|
--3---3-----------0---0---0---0---|--0---0---0------------|------------------|
----------------------------------|-----------------------|------------------|
----------------------------------|-----------------------|------------------|



Chorus(or verse anyway)

----------------------|--------------------------|-------------------------|
----------------------|--------------------------|-------------------------|
----------------------|--0--0--2--2--------2--2--|--0--0--2----------2--2--|
----------------7--7--|--------------0--0--------|-----------0----0--------|
---------5---5--------|--------------------------|-------------------------|
----------------------|--------------------------|-------------------------|


--------------------------|-------------------------|--------------------------|
--------------------------|-------------------------|--------------------------|
--0--0--2--2--------2--2--|--0--0--2----------2--2--|--0--0--2--2--------2--2--|
--------------0--0--------|-----------0----0--------|--------------0--0--------|
--------------------------|-------------------------|--------------------------|
--------------------------|-------------------------|--------------------------|


-------------------------|--------------------------|-------------------------|
-------------------------|--------------------------|-------------------------|
--0--0--2----------------|--------------------0--0--|-------------------2--2--|
-----------0----0--------|--0--0--2--2--3--3--------|--3--3--2--0----0--------|
-------------------0--0--|--------------------------|-------------------------|
-------------------------|--------------------------|-------------------------|


--------------------------|-------------------------|--------------------------|
--------------------------|-------------------------|--------------------------|
--0--0--2--2--------2--2--|--0--0--2----------2--2--|--0--0--2--2--------2--2--|
--------------0--0--------|-----------0----0--------|--------------0--0--------|
--------------------------|-------------------------|--------------------------|
--------------------------|-------------------------|--------------------------|


-------------------------|--------------------------|-------------------------|
-------------------------|--------------------------|-------------------------|
--0--0--2----------2--2--|--0--0--2--2--------2--2--|--0--0--2----------------|
-----------0----0--------|--------------0--0--------|-----------0----0--------|
-------------------------|--------------------------|-------------------0--0--|
-------------------------|--------------------------|-------------------------|


--------------------------|----------------------|Verse--------------|
--------------------------|----------------------|-------------------|
--------------------0--0--|-----------2----------|--------2----------|
--0--0--2--2--3--3--------|--3--3--2--0----------|--------0----------|
--------------------------|----------------------|-------------------|
--------------------------|----------------------|-------------------|



-------------------|-------------------|-------------------|-------------------|
-------------------|-------------------|-------------------|-------------------|
-------------------|-------------------|--------0----------|--------0----------|
--------3----------|--------3----------|-------------------|-------------------|
--------1----------|--------1----------|--------3----------|--------3----------|
-------------------|-------------------|-------------------|-------------------|


-------------------|-------------------|-------------------|-------------------|
-------------------|-------------------|-------------------|-------------------|
--------2----------|--------2----------|--------2----------|--------2----------|
--------0----------|--------0----------|--------0----------|--------0----------|
-------------------|-------------------|-------------------|-------------------|
-------------------|-------------------|-------------------|-------------------|


-------------------|-------------------|-------------------|-------------------|
-------------------|-------------------|-------------------|-------------------|
-------------------|-------------------|--------0----------|--------0----------|
--------3----------|--------3----------|-------------------|-------------------|
--------1----------|--------1----------|--------3----------|--------3----------|
-------------------|-------------------|-------------------|-------------------|


-------------------|-------------------|-------------------|-------------------|
-------------------|-------------------|-------------------|-------------------|
--------2----------|--------2----------|-------------------|--------0----------|
--------0----------|--------0----------|--------3----------|-------------------|
-------------------|-------------------|--------1----------|--------3----------|
-------------------|-------------------|-------------------|-------------------|


-------------------|-------------------|-------------------|
-------------------|-------------------|-------------------|
--------2----------|--------0----------|-------------------|
--------0----------|-------------------|--------3----------|
-------------------|--------3----------|--------1----------|
-------------------|-------------------|-------------------|


--------------------|-------------------|------------------|-------------------|
--------1--------3--|-------------------|------------------|-------------------|
-----------------0--|--------2----------|------------------|-------------------|
--------3-----------|--------0----------|------------------|--------3----------|
--------------------|-------------------|------------------|--------1----------|
--------------------|-------------------|------------------|-------------------|


-------------------|-------------------|-------------------|-------------------|
-------------------|-------------------|-------------------|-------------------|
--------0----------|--------2----------|--------0----------|-------------------|
-------------------|--------0----------|-------------------|--------3----------|
--------3----------|-------------------|--------3----------|--------1----------|
-------------------|-------------------|-------------------|-------------------|


--------------------|-------------------|------------------|-------------------|
--------1--------3--|-------------------|------------------|-------------------|
-----------------0--|--------2----------|------------------|--------2----------|
--------3-----------|--------0----------|------------------|--------0----------|
--------------------|-------------------|------------------|-------------------|
--------------------|-------------------|------------------|-------------------|


-------------------|-------------------|--------------------|
-------------------|-------------------|--------------------|
-------------------|--------0----------|--------2--------0--|
--------3----------|-------------------|--------0-----------|
--------1----------|--------3----------|-----------------3--|
-------------------|-------------------|--------------------|


-------------------|-------------------|-------------------|------------------|
-------------------|-------------------|-------------------|------------------|
--------2----------|-------------------|--------0----------|------------------|
--------0----------|--------3----------|-------------------|------------------|
-------------------|--------1----------|--------3----------|------------------|
-------------------|-------------------|-------------------|------------------|


-------------------|-------------------|-------------------|
-------------------|-------------------|-------------------|
--------2----------|-------------------|--------0----------|
--------0----------|--------3----------|-------------------|
-------------------|--------1----------|--------3----------|
-------------------|-------------------|-------------------|


--------------------|-------------------|-------------------|
--------1--------3--|-------------------|-------------------|
-----------------0--|--------2----------|-------------------|
--------3-----------|--------0----------|--------3----------|
--------------------|-------------------|--------1----------|
--------------------|-------------------|-------------------|


-------------------|------------------|------------------------|
-------------------|------------------|------------------------|
--------0----------|------------------|------------------------|
-------------------|------------------|--------3----3-3-3--3-3-|
--------3----------|------------------|--------1----1-1-1--1-1-|
-------------------|------------------|------------------------|


------------------------------|------------------------------|
------------------------------|------------------------------|
--0--0-0-0--0-0-2--2-2-2--2-2-|--0--0-0-0--0-0---------------|
----------------0--0-0-0--0-0-|----------------3--3-3-3--3-3-|
--3--3-3-3--3-3---------------|--3--3-3-3--3-3-1--1-1-1--1-1-|
------------------------------|------------------------------|


------------------------------|------------------------------|
--1--1-1-3--3-3---------------|------------------------------|
---------0--0-0-2--2-2-2--2-2-|--2--2-2-2--2-2---------------|
--3--3-3--------0--0-0-0--0-0-|--0--0-0-0--0-0-3--3-3-3--3-3-|
------------------------------|----------------1--1-1-1--1-1-|
------------------------------|------------------------------|


------------------------------|------------------------------|
------------------------------|------------------------------|
--0--0-0-0--0-0-2--2-2-2--2-2-|--0--0-0-0--0-0---------------|
----------------0--0-0-0--0-0-|----------------3--3-3-3--3-3-|
--3--3-3-3--3-3---------------|--3--3-3-3--3-3-1--1-1-1--1-1-|
------------------------------|------------------------------|


------------------------------|--------------------------|
--1--1-1-3--3-3---------------|--------------------------|
---------0--0-0-2--2-2-2--2-2-|--2--2-2-2----------2--2--|
--3--3-3--------0--0-0-0--0-0-|--0--0-0-0---0---0--------|
------------------------------|--------------------------|
------------------------------|--------------------------|



--------------------------|-------------------------|--------------------------|
--------------------------|-------------------------|--------------------------|
--0--0--2--2--------2--2--|--0--0--2----------2--2--|--0--0--2--2--------2--2--|
--------------0--0--------|-----------0----0--------|--------------0--0--------|
--------------------------|-------------------------|--------------------------|
--------------------------|-------------------------|--------------------------|


-------------------------|--------------------------|-------------------------|
-------------------------|--------------------------|-------------------------|
--0--0--2----------2--2--|--0--0--2--2--------2--2--|--0--0--2----------------|
-----------0----0--------|--------------0--0--------|-----------0----0--------|
-------------------------|--------------------------|-------------------0--0--|
-------------------------|--------------------------|-------------------------|


--------------------------|-------------------------|--------------------------|
--------------------------|-------------------------|--------------------------|
--------------------0--0--|-------------------2--2--|--0--0--2--2--------2--2--|
--0--0--2--2--3--3--------|--3--3--2--0----0--------|--------------0--0--------|
--------------------------|-------------------------|--------------------------|
--------------------------|-------------------------|--------------------------|


-------------------------|--------------------------|-------------------------|
-------------------------|--------------------------|-------------------------|
--0--0--2----------2--2--|--0--0--2--2--------2--2--|--0--0--2----------2--2--|
-----------0----0--------|--------------0--0--------|-----------0----0--------|
-------------------------|--------------------------|-------------------------|
-------------------------|--------------------------|-------------------------|


--------------------------|-------------------------|--------------------------|
--------------------------|-------------------------|--------------------------|
--0--0--2--2--------2--2--|--0--0--2----------------|--------------------0--0--|
--------------0--0--------|-----------0----0--------|--0--0--2--2--3--3--------|
--------------------------|-------------------0--0--|--------------------------|
--------------------------|-------------------------|--------------------------|


----------------------|--0----1----0------1-0-|------------------------|
-----------3----------|-----------------------|--3------3-1------------|
----------------------|-----------------------|-------------3------3-2-|
--3--3--2-------------|-----------------------|------------------------|
----------------------|-----------------------|------------------------|
----------------------|-----------------------|------------------------|


----------------------|-------------------|--0----1----0------1-0-|
----------------------|----------3--------|-----------------------|
--0----2---3-2--------|-------------------|-----------------------|
----------------------|-------------------|-----------------------|
----------------------|-------------------|-----------------------|
----------------------|-------------------|-----------------------|


------------------------|---------------------|--------------------|
--3------3-1------------|-------1----3--------|-----------3--------|
-------------3------3-2-|--0------------------|--------2-----------|
------------------------|---------------------|--------------------|
------------------------|---------------------|--------------------|
------------------------|---------------------|--------------------|


----------0--1--3-1-0----|----------0--1--3-1-0----|-----------------------|
-------3-----------------|-------3-----------------|----3-1----------------|
----2--------------------|----2--------------------|--------2--3--2--------|
-------------------------|-------------------------|-----------------------|
-------------------------|-------------------------|-----------------------|
-------------------------|-------------------------|-----------------------|


--------------------|----------0--1--3-1-0----|----------0--1--3-1-0----|
-----------3--------|-------3-----------------|-------3-----------------|
--------2-----------|----2--------------------|----2--------------------|
--------------------|-------------------------|-------------------------|
--------------------|-------------------------|-------------------------|
--------------------|-------------------------|-------------------------|


-----------6----------|--5--------8-----8-----|--8-------------10----10-8------|
----3-1---------------|-----------10----10----|--10-8-6---6---------------10-9-|
--------2-------------|-----------------------|---------7----------------------|
----------------------|-----------------------|--------------------------------|
----------------------|-----------------------|--------------------------------|
----------------------|-----------------------|--------------------------------|


----------------15-----13-12-10----|--10-8-6-5-3-5-3-1---1-------------|
--10-9-8-6---6------------------10-|-------------------3---3-2-1---1-3-|
-----------7-----------------------|-----------------------------2-----|
-----------------------------------|-----------------------------------|
-----------------------------------|-----------------------------------|
-----------------------------------|-----------------------------------|


----------17-----17----|--17-15-13----13----15-13---------------|
--3--------------------|-----------15--------------15-15--13-12-|
-----------------------|------------------------------14--------|
-----------------------|----------------------------------------|
-----------------------|----------------------------------------|
-----------------------|----------------------------------------|


--------------------5----3-1-----|----------------------------|
--10-9-10-9-8-6---6----------3-2-|--1---1---------------------|
----------------7----------------|----2---2-0----0-------2----|
---------------------------------|-------------3---3-0---0----|
---------------------------------|----------------------------|
---------------------------------|----------------------------|


-------------------|-------------------|--------------------|
---------2---------|---------2---------|-----------------0--|
-------------------|-------------------|--------2-----------|
---------4---------|---------4---------|--------0--------2--|
-------------------|-------------------|--------------------|
-------------------|-------------------|--------------------|


--------------------|--------------------|-------------------|
--------2--2--------|--------2--2--------|--------2----------|
--------------------|--------------------|-------------------|
--------4--4--------|--------4--4--------|--------4----------|
--------------------|--------------------|-------------------|
--------------------|--------------------|-------------------|


--------------------|---------------------|-----------------5-----3--|
--------------------|--0------2--2--------|----------3-3-3-----6-----|
------2----2--------|---------------------|--2----2------------------|
------0----0--------|--2------4--4--------|--0----0------------------|
--------------------|---------------------|--------------------------|
--------------------|---------------------|--------------------------|


---------------5-----3--|----1-----------1-----0--|---------------1-----0--|
--------3-3-3-----6-----|-------------------3-----|------------------3-----|
------------------------|---------3-3-3-----------|--------3-3-3-----------|
------------------------|-------------------------|------------------------|
------------------------|-------------------------|------------------------|
------------------------|-------------------------|------------------------|


-------------------------|---------------1-----0--|------------------------|
----1-----------3-----1--|------------------3-----|----1-------3-----3--1--|
---------0-0-3-----3-----|--------2-2-2-----------|-------2-------2--------|
-------------------------|------------------------|------------------------|
-------------------------|------------------------|------------------------|
-------------------------|------------------------|------------------------|


------------------------|----------------5-----3--|---------------5-----3--|
-------1--3-------3--1--|-------1--3--3-----6-----|--------3-3-3-----6-----|
----2----------2--------|----2--------------------|------------------------|
------------------------|-------------------------|------------------------|
------------------------|-------------------------|------------------------|
------------------------|-------------------------|------------------------|


----1-----------1-----0--|---------------1-----0--|-------------------------|
-------------------3-----|------------------3-----|----1-----------3-----1--|
---------3-3-3-----------|--------3-3-3-----------|---------0-0-3-----3-----|
-------------------------|------------------------|-------------------------|
-------------------------|------------------------|-------------------------|
-------------------------|------------------------|-------------------------|


---------------1-----0--|------------------------|------------------------|
------------------3-----|----1-------3-----3--1--|-------1--3-------3--1--|
--------2-2-2-----------|-------2-------2--------|----2----------2--------|
------------------------|------------------------|------------------------|
------------------------|------------------------|------------------------|
------------------------|------------------------|------------------------|


----------------5-----3--|---------------5-----3--|----1-----------1-----0--|
-------1--3--3-----6-----|--------3-3-3-----6-----|-------------------3-----|
----2--------------------|------------------------|---------3-3-3-----------|
-------------------------|------------------------|-------------------------|
-------------------------|------------------------|-------------------------|
-------------------------|------------------------|-------------------------|


---------------1-----0--|-------------------------|---------------1-----0--|
------------------3-----|----1-----------3-----1--|------------------3-----|
--------3-3-3-----------|---------0-0-3-----3-----|--------2-2-2-----------|
------------------------|-------------------------|------------------------|
------------------------|-------------------------|------------------------|
------------------------|-------------------------|------------------------|


------------------------|------------------------|----------------------|
----1-------3-----3--1--|-------1--3-------3--1--|----------------------|
-------2-------2--------|----2----------2--------|----------------2--2--|
------------------------|------------------------|--------0----0--------|
------------------------|------------------------|----------------------|
------------------------|------------------------|----------------------|


--------------------------|-------------------------|--------------------------|
--------------------------|-------------------------|--------------------------|
--0--0--2--2--------2--2--|--0--0--2----------2--2--|--0--0--2--2--------2--2--|
--------------0--0--------|-----------0----0--------|--------------0--0--------|
--------------------------|-------------------------|--------------------------|
--------------------------|-------------------------|--------------------------|


-------------------------|--------------------------|-------------------------|
-------------------------|--------------------------|-------------------------|
--0--0--2----------2--2--|--0--0--2--2--------2--2--|--0--0--2----------------|
-----------0----0--------|--------------0--0--------|-----------0----0--------|
-------------------------|--------------------------|-------------------0--0--|
-------------------------|--------------------------|-------------------------|


--------------------------|-------------------------|--------------------------|
--------------------------|-------------------------|--------------------------|
--------------------0--0--|-------------------2--2--|--0--0--2--2--------2--2--|
--0--0--2--2--3--3--------|--3--3--2--0----0--------|--------------0--0--------|
--------------------------|-------------------------|--------------------------|
--------------------------|-------------------------|--------------------------|


-------------------------|--------------------------|-------------------------|
-------------------------|--------------------------|-------------------------|
--0--0--2----------2--2--|--0--0--2--2--------2--2--|--0--0--2----------2--2--|
-----------0----0--------|--------------0--0--------|-----------0----0--------|
-------------------------|--------------------------|-------------------------|
-------------------------|--------------------------|-------------------------|


--------------------------|-------------------------|--------------------------|
--------------------------|-------------------------|--------------------------|
--0--0--2--2--------2--2--|--0--0--2----------------|--------------------0--0--|
--------------0--0--------|-----------0----0--------|--0--0--2--2--3--3--------|
--------------------------|-------------------0--0--|--------------------------|
--------------------------|-------------------------|--------------------------|


----------------------|-------------------|-------------------|
----------------------|-------------------|-------------------|
-----------2----------|-------------------|--------0----------|
--3--3--2--0----------|--------3----------|-------------------|
----------------------|--------1----------|--------3----------|
----------------------|-------------------|-------------------|


--------------------|-------------------|-------------------|
--------------------|-------------------|-------------------|
--------2--------0--|--------2----------|-------------------|
--------0-----------|--------0----------|--------3----------|
-----------------3--|-------------------|--------1----------|
--------------------|-------------------|-------------------|


-------------------|------------------|-------------------|-------------------|
-------------------|------------------|-------------------|-------------------|
--------0----------|------------------|--------2----------|-------------------|
-------------------|------------------|--------0----------|--------3----------|
--------3----------|------------------|-------------------|--------1----------|
-------------------|------------------|-------------------|-------------------|


-------------------|--------------------|-------------------|
-------------------|--------1--------3--|-------------------|
--------0----------|-----------------0--|--------2----------|
-------------------|--------3-----------|--------0----------|
--------3----------|--------------------|-------------------|
-------------------|--------------------|-------------------|


-------------------|-------------------|------------------|
-------------------|-------------------|------------------|
-------------------|--------0----------|------------------|
--------3----------|-------------------|------------------|
--------1----------|--------3----------|------------------|
-------------------|-------------------|------------------|


------------------------|------------------------------|
------------------------|------------------------------|
------------------------|--0--0-0-0--0-0-2--2-2-2--2-2-|
--------3----3-3-3--3-3-|----------------0--0-0-0--0-0-|
--------1----1-1-1--1-1-|--3--3-3-3--3-3---------------|
------------------------|------------------------------|


------------------------------|------------------------------|
------------------------------|--1--1-1-3--3-3---------------|
--0--0-0-0--0-0---------------|---------0--0-0-2--2-2-2--2-2-|
----------------3--3-3-3--3-3-|--3--3-3--------0--0-0-0--0-0-|
--3--3-3-3--3-3-1--1-1-1--1-1-|------------------------------|
------------------------------|------------------------------|


------------------------------|------------------------------|
------------------------------|------------------------------|
--2--2-2-2--2-2---------------|--0--0-0-0--0-0-2--2-2-2--2-2-|
--0--0-0-0--0-0-3--3-3-3--3-3-|----------------0--0-0-0--0-0-|
----------------1--1-1-1--1-1-|--3--3-3-3--3-3---------------|
------------------------------|------------------------------|


------------------------------|------------------------------|
------------------------------|--1--1-1-3--3-3---------------|
--0--0-0-0--0-0---------------|---------0--0-0-2--2-2-2--2-2-|
----------------3--3-3-3--3-3-|--3--3-3--------0--0-0-0--0-0-|
--3--3-3-3--3-3-1--1-1-1--1-1-|------------------------------|
------------------------------|------------------------------|


------------------------------|------------------------------|
------------------------------|------------------------------|
--2--2-2-2--2-2---------------|--0--0-0-0--0-0-2--2-2-2--2-2-|
--0--0-0-0--0-0-3--3-3-3--3-3-|----------------0--0-0-0--0-0-|
----------------1--1-1-1--1-1-|--3--3-3-3--3-3---------------|
------------------------------|------------------------------|


------------------------------|------------------------------|
------------------------------|--1--1-1-3--3-3---------------|
--0--0-0-0--0-0---------------|---------0--0-0-2--2-2-2--2-2-|
----------------3--3-3-3--3-3-|--3--3-3--------0--0-0-0--0-0-|
--3--3-3-3--3-3-1--1-1-1--1-1-|------------------------------|
------------------------------|------------------------------|


------------------------------|------------------------------|
------------------------------|------------------------------|
--2--2-2-2--2-2---------------|--0--0-0-0--0-0-2--2-2-2--2-2-|
--0--0-0-0--0-0-3--3-3-3--3-3-|----------------0--0-0-0--0-0-|
----------------1--1-1-1--1-1-|--3--3-3-3--3-3---------------|
------------------------------|------------------------------|


------------------------------|-------------------------|------------------|
------------------------------|--1--1-1-3--3-3-3--------|------------------|
--0--0-0-0--0-0---------------|---------0--0-0-2--------|------------------|
----------------3--3-3-3--3-3-|--3--3-3--------0--------|------------------|
--3--3-3-3--3-3-1--1-1-1--1-1-|-------------------------|------------------|
------------------------------|-------------------------|------------------|


------------------|------------------|--------------3------|
------------------|------------------|------------2--------|
------------------|------------------|---------------------|
------------------|------------------|---------------------|
------------------|------------------|---------------------|
------------------|------------------|---------------------|


--1---3-1--0-------------|-----------1-----------0-1-|-----3-1--0-----------|
-------------1------1----|-----1--1----3------3------|------------1---------|
------------------0------|--3---------------2--------|----------------------|
-------------------------|---------------------------|----------------------|
-------------------------|---------------------------|----------------------|
-------------------------|---------------------------|----------------------|


------------------0-1-|-----3-1--0---------------|-----------1-----------0-1-|
---------------3------|------------1------1------|------1-1----3------3------|
-------------2--------|-----------------0----0-3-|--3---------------2--------|
----------------------|--------------------------|---------------------------|
----------------------|--------------------------|---------------------------|
----------------------|--------------------------|---------------------------|


----3-1---0----------15-|--------------------------|
------------1-----------|--------------------------|
------------------------|--------------------------|
------------------------|------------7-0-7-0-7-0-7-|
------------------------|----------5---------------|
------------------------|--------------------------|


----------------------------------|-------------------------------|
----------------------------------|-------------------------------|
--------------------0---0---0---0-|----------0-5-0-5---2---2------|
----------------------------------|----8---8---------0---0---0----|
----8---8---8---8-----------------|--8---8------------------------|
--6---6---6---6---8---8---8---8---|-------------------------------|





Comments


Popular Iron Maiden tabs & chords
Brave New World 3 Bass Tabs
Holy Smoke 2 Bass Tabs
Longest Day Intro Bass Tabs
Fear Of The Dark 1 Drum Tabs
Aces High Tabs
Afraid To Shoot Strangers Tabs
Chains Of Misery 3 Tabs
Ghost Of The Navigator 3 Tabs
Losfer Words Tabs
Sign Of The Cross Tabs


Song lyrics



↑ Back to top | Tablatures and chords are parodies/interpretations of the original songs. You may use it for private study, scholarship, research or language learning purposes only
© 2014 AZChords.com Contact us | Privacy policy | DMCA | Add/correct tabs | Request tabs | Top 50 tabs