>
 >
El Dorado 4

El Dorado 4 Guitar Tabs

Iron Maiden - El Dorado 4 chords, tabs, tablatures, lyrics

Guitar lessons | Add/correct | Request | Top 50 tabs Artists:  A B C D E F G H I J K L M N O P Q R S T U V W X Y Z 0-9

El Dorado 4 Guitar Tabs – Iron Maiden

CD, Sheet music, Poster

Do you like El Dorado 4? Share with your friends now
Bass TabsTabsTabs v2Tabs v3Tabs v4
This is Adrian's solo in El dorado
I dont think its 100% correct
But here is how i play it

|----------------------------------------------|
|----------------------------------------------|
|-12b-12b-9-10-12-10-9-------------------------|
|----------------------12-11----12-11----------|
|----------------------------12-------12-10-12-|
|----------------------------------------------|

|-------------------------------------|
|-------------------------------------|
|-------------------------------------|
|----11h12p11/7----7h8p7----7-8-8/11v-|
|-12------------10-------10-----------|
|-------------------------------------|

|-------12b-12b-10h12p10-8h10p8-7h8p7-5vvv-|
|------------------------------------------|
|------------------------------------------|
|-11-11------------------------------------|
|------------------------------------------|
|------------------------------------------|

|-17-----17-----17-----17-----17-----17-----17-20b-|
|----20b----20b----20b----20b----20b----20b--------|
|--------------------------------------------------|
|--------------------------------------------------|
|--------------------------------------------------|
|--------------------------------------------------|

As i said, im not sure it's 100% correct, but im the first one to post
this solo here





Comments


Popular Iron Maiden tabs & chords
Afraid To Shoot Strangers Bass Tabs
Fear Of The Dark 1 Drum Tabs
Killers Drum Tabs
Blood On The World's Hands 1 Tabs
Caught Somewhere In Time Intro 2 Tabs
Children Of The Damned 1 Tabs
Dream Of Mirrors Tabs
Revelations Tabs
Seventh Son Of A Seventh Son 1 Tabs
Still Life Tabs


Song lyrics



↑ Back to top | Tablatures and chords are parodies/interpretations of the original songs. You may use it for private study, scholarship, research or language learning purposes only
© 2014 AZChords.com Contact us | Privacy policy | DMCA | Add/correct tabs | Request tabs | Top 50 tabs