>
 >
Dont Look To The Eyes Of A Stranger

Dont Look To The Eyes Of A Stranger Bass Tabs

Iron Maiden - Dont Look To The Eyes Of A Stranger chords, tabs, tablatures, lyrics

Guitar lessons | Add/correct | Request | Top 50 tabs Artists:  A B C D E F G H I J K L M N O P Q R S T U V W X Y Z 0-9

Dont Look To The Eyes Of A Stranger Bass Tabs – Iron Maiden

CD, Sheet music, Poster

Do you like Dont Look To The Eyes Of A Stranger? Share with your friends now
Bass TabsTabs
IRON MAIDEN
Don't look to the eyes of a stranger



                                                          
F#||------------------|----------14----------------------|
C#||------------------|------14------14----------15------|
G#||------------------|--12------------------15------15--|
D#||------------------|------------------13--------------|


                                                                     
---------------------------------|----------14----------------------|
----------14-------------10------|------14------14----------15------|
------14------14-----10------10--|--12------------------15------15--|
--12--------------8--------------|------------------13--------------|


                                                                      
----------------------------------|----------14----------------------|
----------14--------------12------|------14------14----------15------|
------14------14------12------12--|--12------------------15------15--|
--12--------------10--------------|------------------13--------------|


                                                                     
---------------------------------|----------14----------------------|
----------14-------------10------|------14------14----------15------|
------14------14-----10------10--|--12------------------15------15--|
--12--------------8--------------|------------------13--------------|


                                                                      
----------------------------------|----------14----------------------|
----------14--------------12------|------14------14----------15------|
------14------14------12------12--|--12------------------15------15--|
--12--------------10--------------|------------------13--------------|


                                                                     
---------------------------------|----------14----------------------|
----------14-------------10------|------14------14----------15------|
------14------14-----10------10--|--12------------------15------15--|
--12--------------8--------------|------------------13--------------|


                                                                      
----------------------------------|----------14----------------------|
----------14--------------12------|------14------14----------15------|
------14------14------12------12--|--12------------------15------15--|
--12--------------10--------------|------------------13--------------|


                                                                     
---------------------------------|----------14----------------------|
----------14-------------10------|------14------14----------15------|
------14------14-----10------10--|--12------------------15------15--|
--12--------------8--------------|------------------13--------------|


                                                                      
----------------------------------|----------14----------------------|
----------14--------------12------|------14------14----------15------|
------14------14------12------12--|--12------------------15------15--|
--12--------------10--------------|------------------13--------------|


                                                                     
---------------------------------|----------14----------------------|
----------14-------------10------|------14------14----------15------|
------14------14-----10------10--|--12------------------15------15--|
--12--------------8--------------|------------------13--------------|


                                                                      
----------------------------------|----------14----------------------|
----------14--------------12------|------14------14----------15------|
------14------14------12------12--|--12------------------15------15--|
--12--------------10--------------|------------------13--------------|


                                                                     
---------------------------------|----------14----------------------|
----------14-------------10------|------14------14----------15------|
------14------14-----10------10--|--12------------------15------15--|
--12--------------8--------------|------------------13--------------|


                                                                      
----------------------------------|----------14----------------------|
----------14--------------12------|------14------14----------15------|
------14------14------12------12--|--12------------------15------15--|
--12--------------10--------------|------------------13--------------|


                                                                     
---------------------------------|----------14----------------------|
----------14-------------10------|------14------14----------15------|
------14------14-----10------10--|--12------------------15------15--|
--12--------------8--------------|------------------13--------------|


                                                                      
----------------------------------|----------14----------------------|
----------14--------------12------|------14------14----------15------|
------14------14------12------12--|--12------------------15------15--|
--12--------------10--------------|------------------13--------------|


                                                                     
---------------------------------|----------14----------------------|
----------14-------------10------|------14------14----------15------|
------14------14-----10------10--|--12------------------15------15--|
--12--------------8--------------|------------------13--------------|


                                                                      
----------------------------------|----------14----------------------|
----------14--------------12------|------14------14----------15------|
------14------14------12------12--|--12------------------15------15--|
--12--------------10--------------|------------------13--------------|


                                                                     
---------------------------------|----------14----------------------|
----------14-------------10------|------14------14----------15------|
------14------14-----10------10--|--12------------------15------15--|
--12--------------8--------------|------------------13--------------|


                                                                      
----------------------------------|----------14----------------------|
----------14--------------12------|------14------14----------15------|
------14------14------12------12--|--12------------------15------15--|
--12--------------10--------------|------------------13--------------|


                                                                     
---------------------------------|----------14----------------------|
----------14-------------10------|------14------14----------15------|
------14------14-----10------10--|--12------------------15------15--|
--12--------------8--------------|------------------13--------------|


                                                                        
------------------|--------------------------|-------------------------|
----------14------|--------------------------|-------2--------2--------|
------14------14--|-----------------------0--|----0-----0--0-----0--0--|
--12--------------|--3--3--3--3--3--3--3-----|-------------------------|


                                                                                
--------------------------|-------------------------|--------------------------|
--------------------------|-------2--------2--------|--------------------------|
--5--------3--------3--0--|----0-----0--0-----0--0--|--5--------3--------3--0--|
-----3--3-----1--1--------|-------------------------|-----3--3-----1--1--------|


                                                                               
-------------------------|--------------------------|-------------------------|
-------2--------2--------|--------------------------|-------2--------2--------|
----0-----0--0-----0--0--|--5--------3--------3--0--|----0-----0--0-----0--0--|
-------------------------|-----3--3-----1--1--------|-------------------------|


                                                      
--------------------------|--------------------------|
--------------------------|--2-----2--------2--------|
--5--------3--------3-----|-----0-----0--0-----0--0--|
-----3--3-----1--1-----1--|--------------------------|


                                                      
--------------------------|--------------------------|
--------------------------|--2-----2--------2--------|
--5--------3--------3-----|-----0-----0--0-----0--0--|
-----3--3-----1--1-----1--|--------------------------|


                                                      
--------------------------|--------------------------|
--------------------------|--5-----5-----------------|
--5--------3--------3-----|-----3-----3--3--3--3--3--|
-----3--3-----1--1-----1--|--------------------------|


                                                      
--------------------------|--------------------------|
--7-----------------------|--2-----2--------2--------|
-----5--5--5--5--5--5--5--|-----0-----0--0-----0--0--|
--------------------------|--------------------------|


                                                      
--------------------------|--------------------------|
--------------------------|--2-----2--------2--------|
--5--------3--------3-----|-----0-----0--0-----0--0--|
-----3--3-----1--1-----1--|--------------------------|


                                                      
--------------------------|--------------------------|
--------------------------|--2-----2--------2--------|
--5--------3--------3-----|-----0-----0--0-----0--0--|
-----3--3-----1--1-----1--|--------------------------|


                                                      
--------------------------|--------------------------|
--------------------------|--5-----5-----------------|
--5--------3--------3-----|-----3-----3--3--3--3--3--|
-----3--3-----1--1-----1--|--------------------------|


                                                      
--------------------------|--------------------------|
--7-----------------------|--2-----2--------2--------|
-----5--5--5--5--5--5--5--|-----0-----0--0-----0--0--|
--------------------------|--------------------------|


                                                                                
--------------------------|-------------------------|--------------------------|
--------------------------|-------2--------2--------|--------------------------|
--5--------3--------3--0--|----0-----0--0-----0--0--|--5--------3--------3--0--|
-----3--3-----1--1--------|-------------------------|-----3--3-----1--1--------|


                                                                                
-------------------------|--------------------------|--------------------------|
-------2--------2--------|--------------------------|--2-----2--------2--------|
----0-----0--0-----0--0--|--5--------3--------3-----|-----0-----0--0-----0--0--|
-------------------------|-----3--3-----1--1-----1--|--------------------------|


                                                      
--------------------------|--------------------------|
--------------------------|--2-----2--------2--------|
--5--------3--------3-----|-----0-----0--0-----0--0--|
-----3--3-----1--1-----1--|--------------------------|


                                                      
--------------------------|--------------------------|
--------------------------|--5-----5-----------------|
--5--------3--------3-----|-----3-----3--3--3--3--3--|
-----3--3-----1--1-----1--|--------------------------|


                                                      
--------------------------|--------------------------|
--7-----------------------|--2-----2--------2--------|
-----5--5--5--5--5--5--5--|-----0-----0--0-----0--0--|
--------------------------|--------------------------|


                                                      
--------------------------|--------------------------|
--------------------------|--2-----2--------2--------|
--5--------3--------3-----|-----0-----0--0-----0--0--|
-----3--3-----1--1-----1--|--------------------------|


                                                      
--------------------------|--------------------------|
--------------------------|--2-----2--------2--------|
--5--------3--------3-----|-----0-----0--0-----0--0--|
-----3--3-----1--1-----1--|--------------------------|


                                                      
--------------------------|--------------------------|
--------------------------|--5-----5-----------------|
--5--------3--------3-----|-----3-----3--3--3--3--3--|
-----3--3-----1--1-----1--|--------------------------|


                                                      
--------------------------|--------------------------|
--7-----------------------|--2-----2--------2--------|
-----5--5--5--5--5--5--5--|-----0-----0--0-----0--0--|
--------------------------|--------------------------|


                                                                                
--------------------------|-------------------------|--------------------------|
--------------------------|-------2--------2--------|--------------------------|
--5--------3--------3--0--|----0-----0--0-----0--0--|--5--------3--------3--0--|
-----3--3-----1--1--------|-------------------------|-----3--3-----1--1--------|


                                               
-------------------------|--------------------|
-------2--------2--------|--------------------|
----0-----0--0-----0--0--|--------------------|
-------------------------|--3------1----------|


                                                                     
----------14----------------------|---------------------------------|
------14------14----------15------|----------14-------------10------|
--12------------------15------15--|------14------14-----10------10--|
------------------13--------------|--12--------------8--------------|


                                                                      
----------14----------------------|----------------------------------|
------14------14----------15------|----------14--------------12------|
--12------------------15------15--|------14------14------12------12--|
------------------13--------------|--12--------------10--------------|


                                                                     
----------14----------------------|---------------------------------|
------14------14----------15------|----------14-------------10------|
--12------------------15------15--|------14------14-----10------10--|
------------------13--------------|--12--------------8--------------|


                                                                      
----------14----------------------|----------------------------------|
------14------14----------15------|----------14--------------12------|
--12------------------15------15--|------14------14------12------12--|
------------------13--------------|--12--------------10--------------|


                                                                     
----------14----------------------|---------------------------------|
------14------14----------15------|----------14-------------10------|
--12------------------15------15--|------14------14-----10------10--|
------------------13--------------|--12--------------8--------------|


                                                                      
----------14----------------------|----------------------------------|
------14------14----------15------|----------14--------------12------|
--12------------------15------15--|------14------14------12------12--|
------------------13--------------|--12--------------10--------------|


                                                                     
----------14----------------------|---------------------------------|
------14------14----------15------|----------14-------------10------|
--12------------------15------15--|------14------14-----10------10--|
------------------13--------------|--12--------------8--------------|


                                                                      
----------14----------------------|----------------------------------|
------14------14----------15------|----------14--------------12------|
--12------------------15------15--|------14------14------12------12--|
------------------13--------------|--12--------------10--------------|


                                                                     
----------14----------------------|---------------------------------|
------14------14----------15------|----------14-------------10------|
--12------------------15------15--|------14------14-----10------10--|
------------------13--------------|--12--------------8--------------|


                                                                      
----------14----------------------|----------------------------------|
------14------14----------15------|----------14--------------12------|
--12------------------15------15--|------14------14------12------12--|
------------------13--------------|--12--------------10--------------|


                                                                     
----------14----------------------|---------------------------------|
------14------14----------15------|----------14-------------10------|
--12------------------15------15--|------14------14-----10------10--|
------------------13--------------|--12--------------8--------------|


                                                                    
----------14----------------------|--------------------------------|
------14------14----------15------|----------14--------------12----|
--12------------------15------15--|------14------14------12--------|
------------------13--------------|--12--------------10------------|


                                                                         
------------------|-----9-----9-----9-----9--|-----9-----9-----9-----9--|
------------------|--7-----7-----7-----7-----|--7-----7-----7-----7-----|
------------------|--------------------------|--------------------------|
------------------|--------------------------|--------------------------|


                                                      
-----9-----9-----9-----9--|-----9-----9-----9-----9--|
--7-----7-----7-----7-----|--7-----7-----7-----7-----|
--------------------------|--------------------------|
--------------------------|--------------------------|


                                                              
------------------------------|------------------------------|
-----10-----10-----10-----10--|-----10-----10-----10-----10--|
--8------8------8------8------|--8------8------8------8------|
------------------------------|------------------------------|


                                                              
------------------------------|------------------------------|
-----10-----10-----10-----10--|-----10-----10-----10-----10--|
--8------8------8------8------|--8------8------8------8------|
------------------------------|------------------------------|


                                                      
--------------------------|--------------------------|
-----7-----7-----7-----7--|-----7-----7-----7-----7--|
--5-----5-----5-----5-----|--5-----5-----5-----5-----|
--------------------------|--------------------------|


                                                      
--------------------------|--------------------------|
-----7-----7-----7-----7--|-----7-----7-----7-----7--|
--5-----5-----5-----5-----|--5-----5-----5-----5-----|
--------------------------|--------------------------|


                                                      
--------------------------|--------------------------|
-----5-----5-----5-----5--|-----5-----5-----5-----5--|
--3-----3-----3-----3-----|--3-----3-----3-----3-----|
--------------------------|--------------------------|


                                                            
--------------------------|--------------------------------|
-----7-----7-----7-----7--|-----10-----10------12------12--|
--5-----5-----5-----5-----|--8------8------10------10------|
--------------------------|--------------------------------|


                                                      
-----9-----9-----9-----9--|-----9-----9-----9-----9--|
--7-----7-----7-----7-----|--7-----7-----7-----7-----|
--------------------------|--------------------------|
--------------------------|--------------------------|


                                                      
-----9-----9-----9-----9--|-----9-----9-----9-----9--|
--7-----7-----7-----7-----|--7-----7-----7-----7-----|
--------------------------|--------------------------|
--------------------------|--------------------------|


                                                              
------------------------------|------------------------------|
-----10-----10-----10-----10--|-----10-----10-----10-----10--|
--8------8------8------8------|--8------8------8------8------|
------------------------------|------------------------------|


                                                              
------------------------------|------------------------------|
-----10-----10-----10-----10--|-----10-----10-----10-----10--|
--8------8------8------8------|--8------8------8------8------|
------------------------------|------------------------------|


                                                      
--------------------------|--------------------------|
-----7-----7-----7-----7--|-----7-----7-----7-----7--|
--5-----5-----5-----5-----|--5-----5-----5-----5-----|
--------------------------|--------------------------|


                                                      
--------------------------|--------------------------|
-----7-----7-----7-----7--|-----7-----7-----7-----7--|
--5-----5-----5-----5-----|--5-----5-----5-----5-----|
--------------------------|--------------------------|


                                                      
--------------------------|--------------------------|
-----5-----5-----5-----5--|-----5-----5-----5-----5--|
--3-----3-----3-----3-----|--3-----3-----3-----3-----|
--------------------------|--------------------------|


                                                            
--------------------------|--------------------------------|
-----7-----7-----7-----7--|-----10-----10------12------12--|
--5-----5-----5-----5-----|--8------8------10------10------|
--------------------------|--------------------------------|


                                                      
-----9-----9-----9-----9--|-----9-----9-----9-----9--|
--7-----7-----7-----7-----|--7-----7-----7-----7-----|
--------------------------|--------------------------|
--------------------------|--------------------------|


                                                      
-----9-----9-----9-----9--|-----9-----9-----9-----9--|
--7-----7-----7-----7-----|--7-----7-----7-----7-----|
--------------------------|--------------------------|
--------------------------|--------------------------|


                                                              
------------------------------|------------------------------|
-----10-----10-----10-----10--|-----10-----10-----10-----10--|
--8------8------8------8------|--8------8------8------8------|
------------------------------|------------------------------|


                                                              
------------------------------|------------------------------|
-----10-----10-----10-----10--|-----10-----10-----10-----10--|
--8------8------8------8------|--8------8------8------8------|
------------------------------|------------------------------|


                                                      
--------------------------|--------------------------|
-----7-----7-----7-----7--|-----7-----7-----7-----7--|
--5-----5-----5-----5-----|--5-----5-----5-----5-----|
--------------------------|--------------------------|


                                                      
--------------------------|--------------------------|
-----7-----7-----7-----7--|-----7-----7-----7-----7--|
--5-----5-----5-----5-----|--5-----5-----5-----5-----|
--------------------------|--------------------------|


                                                      
--------------------------|--------------------------|
-----5-----5-----5-----5--|-----5-----5-----5-----5--|
--3-----3-----3-----3-----|--3-----3-----3-----3-----|
--------------------------|--------------------------|


                                                            
--------------------------|--------------------------------|
-----7-----7-----7-----7--|-----10-----10------12------12--|
--5-----5-----5-----5-----|--8------8------10------10------|
--------------------------|--------------------------------|


                                                      
-----9-----9-----9-----9--|-----9-----9-----9-----9--|
--7-----7-----7-----7-----|--7-----7-----7-----7-----|
--------------------------|--------------------------|
--------------------------|--------------------------|


                                                      
-----9-----9-----9-----9--|-----9-----9-----9-----9--|
--7-----7-----7-----7-----|--7-----7-----7-----7-----|
--------------------------|--------------------------|
--------------------------|--------------------------|


                                                              
------------------------------|------------------------------|
-----10-----10-----10-----10--|-----10-----10-----10-----10--|
--8------8------8------8------|--8------8------8------8------|
------------------------------|------------------------------|


                                                              
------------------------------|------------------------------|
-----10-----10-----10-----10--|-----10-----10-----10-----10--|
--8------8------8------8------|--8------8------8------8------|
------------------------------|------------------------------|


                                                      
--------------------------|--------------------------|
-----7-----7-----7-----7--|-----7-----7-----7-----7--|
--5-----5-----5-----5-----|--5-----5-----5-----5-----|
--------------------------|--------------------------|


                                                      
--------------------------|--------------------------|
-----7-----7-----7-----7--|-----7-----7-----7-----7--|
--5-----5-----5-----5-----|--5-----5-----5-----5-----|
--------------------------|--------------------------|


                                                      
--------------------------|--------------------------|
-----5-----5-----5-----5--|-----5-----5-----5-----5--|
--3-----3-----3-----3-----|--3-----3-----3-----3-----|
--------------------------|--------------------------|


                                                            
--------------------------|--------------------------------|
-----7-----7-----7-----7--|-----10-----10------12------12--|
--5-----5-----5-----5-----|--8------8------10------10------|
--------------------------|--------------------------------|


                                                      
-----9-----9-----9-----9--|-----9-----9-----9-----9--|
--7-----7-----7-----7-----|--7-----7-----7-----7-----|
--------------------------|--------------------------|
--------------------------|--------------------------|


                                                      
-----9-----9-----9-----9--|-----9-----9-----9-----9--|
--7-----7-----7-----7-----|--7-----7-----7-----7-----|
--------------------------|--------------------------|
--------------------------|--------------------------|


                                                              
------------------------------|------------------------------|
-----10-----10-----10-----10--|-----10-----10-----10-----10--|
--8------8------8------8------|--8------8------8------8------|
------------------------------|------------------------------|


                                                              
------------------------------|------------------------------|
-----10-----10-----10-----10--|-----10-----10-----10-----10--|
--8------8------8------8------|--8------8------8------8------|
------------------------------|------------------------------|


                                                      
--------------------------|--------------------------|
-----7-----7-----7-----7--|-----7-----7-----7-----7--|
--5-----5-----5-----5-----|--5-----5-----5-----5-----|
--------------------------|--------------------------|


                                                      
--------------------------|--------------------------|
-----7-----7-----7-----7--|-----7-----7-----7-----7--|
--5-----5-----5-----5-----|--5-----5-----5-----5-----|
--------------------------|--------------------------|


                                                      
--------------------------|--------------------------|
-----5-----5-----5-----5--|-----5-----5-----5-----5--|
--3-----3-----3-----3-----|--3-----3-----3-----3-----|
--------------------------|--------------------------|


                                                            
--------------------------|--------------------------------|
-----7-----7-----7-----7--|-----10-----10------12------12--|
--5-----5-----5-----5-----|--8------8------10------10------|
--------------------------|--------------------------------|


                                                                     
----------------------|----------------------|----------------------|
----------------------|----------------------|----------------------|
----------------------|----------------------|----------------------|
--5----5----5----5----|--5----5----5----5----|--5----5----5----5----|


                                                                     
----------------------|----------------------|----------------------|
----------------------|----------------------|----------------------|
----------------------|----------------------|----------------------|
--5----5----5----5----|--3----3----3----3----|--3----3----3----3----|


                                                                     
----------------------|----------------------|----------------------|
----------------------|----------------------|----------------------|
----------------------|----------------------|----------------------|
--1----1----1----1----|--1----1----1----1----|--5----5----5----5----|


                                                                     
----------------------|----------------------|----------------------|
----------------------|----------------------|----------------------|
----------------------|----------------------|----------------------|
--5----5----5----5----|--5----5----5----5----|--5----5----5----5----|


                                                                     
----------------------|----------------------|----------------------|
----------------------|----------------------|----------------------|
----------------------|----------------------|--5----5----5----5----|
--3----3----3----3----|--3----3----3----3----|----------------------|


                                                                     
----------------------|----------------------|----------------------|
----------------------|----------------------|----------------------|
--5----5----5----5----|----------------------|----------------------|
----------------------|--5----5----5----5----|--5----5----5----5----|


                                                                     
----------------------|----------------------|----------------------|
----------------------|----------------------|----------------------|
----------------------|----------------------|----------------------|
--5----5----5----5----|--5----5----3----3----|--1----1----1----1----|


                                                                     
----------------------|----------------------|----------------------|
----------------------|----------------------|----------------------|
----------------------|--5----5----5----5----|--5----5--------------|
--1----1----1----1----|----------------------|------------1----3----|


                                                                     
----------------------|----------------------|----------------------|
----------------------|----------------------|----------------------|
----------------------|----------------------|----------------------|
--5----5----5----5----|--5----5----5----5----|--5----5----5----5----|


                                                                     
----------------------|----------------------|----------------------|
----------------------|----------------------|----------------------|
----------------------|--5----5----5----5----|--5----5----5----5----|
--5----5----3----3----|----------------------|----------------------|


                                                                        
----------------------|----------------------|-------------------------|
----------------------|----------------------|-------------------------|
----------------------|----------------------|-------------------------|
--1----1----1----1----|--1----1----1----3----|--5--5--5--5--5----5--5--|


                                                                        
---------------------|-------------------------|-----------------------|
---------------------|-------------------------|-----------------------|
---------------------|-------------------------|------------------3----|
--5--5--5------------|--5--5--5--5--5----5--5--|--5--5--5----3---------|


                                                                     
----------------------|----------------------|----------------------|
----------------------|----------------------|----------------------|
----------------------|----------------------|----------------------|
--5----5----5----5----|--5----5----5----5----|--5----5----5----5----|


                                                                     
----------------------|----------------------|----------------------|
----------------------|----------------------|----------------------|
----------------------|----------------------|----------------------|
--5----5----5----5----|--3----3----3----3----|--3----3----3----3----|


                                                                     
----------------------|----------------------|----------------------|
----------------------|----------------------|----------------------|
----------------------|----------------------|----------------------|
--1----1----1----1----|--1----1----1----1----|--5----5----5----5----|


                                                                     
----------------------|----------------------|----------------------|
----------------------|----------------------|----------------------|
----------------------|----------------------|----------------------|
--5----5----5----5----|--5----5----5----5----|--5----5----3----3----|


                                                                     
----------------------|----------------------|----------------------|
----------------------|----------------------|----------------------|
----------------------|----------------------|--5----5----5----5----|
--1----1----1----1----|--1----1----1----1----|----------------------|


                                                                     
----------------------|----------------------|----------------------|
----------------------|----------------------|----------------------|
--5----5--------------|----------------------|----------------------|
------------1----3----|--5----5----5----5----|--5----5----5----5----|


                                                                     
----------------------|----------------------|----------------------|
----------------------|----------------------|----------------------|
----------------------|----------------------|----------------------|
--5----5----5----5----|--5----5----3----3----|--1----1----1----1----|


                                                                     
----------------------|----------------------|----------------------|
----------------------|----------------------|----------------------|
----------------------|--5----5----5----5----|--5----5--------------|
--1----1----1----1----|----------------------|------------1----3----|


                                                                        
-------------------------|---------------------|-----------------------|
-------------------------|---------------------|-----------------------|
-------------------------|---------------------|-----------------------|
--5--5--5--5--5----5--5--|--5--5--5------------|--5--5--5--5--5--------|


                                                                   
--------------------|----------------------|----------------------|
--------------------|----------------------|----------------------|
---------------3----|----------------------|----------------------|
----------3---------|--5----5----5----5----|--5----5----5----5----|


                                                                     
----------------------|----------------------|----------------------|
----------------------|----------------------|----------------------|
----------------------|----------------------|----------------------|
--5----5----5----5----|--5----5----5----5----|--3----3----3----3----|


                                                                     
----------------------|----------------------|----------------------|
----------------------|----------------------|----------------------|
----------------------|----------------------|----------------------|
--3----3----3----3----|--1----1----1----1----|--1----1----1----1----|


                                                                     
----------------------|----------------------|----------------------|
----------------------|----------------------|----------------------|
----------------------|----------------------|----------------------|
--5----5----5----5----|--5----5----5----5----|--5----5----5----5----|


                                                                     
----------------------|----------------------|----------------------|
----------------------|----------------------|----------------------|
----------------------|----------------------|----------------------|
--5----5----3----3----|--1----1----1----1----|--1----1----1----1----|


                                                                     
----------------------|----------------------|----------------------|
----------------------|----------------------|----------------------|
--5----5----5----5----|--5----5--------------|----------------------|
----------------------|------------1----3----|--5----5----5----5----|


                                                                     
----------------------|----------------------|----------------------|
----------------------|----------------------|----------------------|
----------------------|----------------------|----------------------|
--5----5----5----5----|--5----5----5----5----|--5----5----3----3----|


                                                                     
----------------------|----------------------|----------------------|
----------------------|----------------------|----------------------|
----------------------|----------------------|--5----5----5----5----|
--1----1----1----1----|--1----1----1----1----|----------------------|


                                                                    
----------------------|-----------------------|--------------------|
----------------------|-----------------------|--------------------|
--5----5--------------|-----------------------|---------------3----|
------------1----3----|--5--5--5--5--5--------|----------3---------|


                                                                     
----------------------|----------------------|----------------------|
----------------------|----------------------|----------------------|
----------------------|----------------------|----------------------|
--5----5----5----5----|--5----5----5----5----|--5----5----5----5----|


                                                                     
----------------------|----------------------|----------------------|
----------------------|----------------------|----------------------|
----------------------|----------------------|----------------------|
--5----5----3----3----|--1----1----1----1----|--1----1----1----1----|


                                                                     
----------------------|----------------------|----------------------|
----------------------|----------------------|----------------------|
--5----5----5----5----|--5----5--------------|----------------------|
----------------------|------------1----3----|--5----5----5----5----|


                                                                     
----------------------|----------------------|----------------------|
----------------------|----------------------|----------------------|
----------------------|----------------------|----------------------|
--5----5----5----5----|--5----5----5----5----|--5----5----3----3----|


                                                                     
----------------------|----------------------|----------------------|
----------------------|----------------------|----------------------|
--5----5----5----5----|--5----5----5----5----|----------------------|
----------------------|----------------------|--1----1----1----1----|


                                                                     
----------------------|----------------------|----------------------|
----------------------|----------------------|----------------------|
----------------------|----------------------|----------------------|
--1----1----1----3----|--5----5----5----5----|--5----5----5----5----|


                                                                     
----------------------|----------------------|----------------------|
----------------------|----------------------|----------------------|
----------------------|----------------------|----------------------|
--5----5----5----5----|--5----5----3----3----|--1----1----1----1----|


                                                                     
----------------------|----------------------|----------------------|
----------------------|----------------------|----------------------|
----------------------|--5----5----5----5----|--5----5----5----5----|
--1----1----1----1----|----------------------|----------------------|


                                                                     
----------------------|----------------------|----------------------|
----------------------|----------------------|----------------------|
----------------------|----------------------|----------------------|
--5----5----5----5----|--5----5----5----5----|--5----5----5----5----|


                                                                     
----------------------|----------------------|----------------------|
----------------------|----------------------|----------------------|
----------------------|--5----5----5----5----|--5----5----5----5----|
--5----5----3----3----|----------------------|----------------------|


                                                              
--------------------------|----------14----------------------|
--------------------------|------14------14----------15------|
--------------------------|--12------------------15------15--|
--1--1--1--1--3--3--3--3--|------------------13--------------|


                                                                     
---------------------------------|----------14----------------------|
----------14-------------10------|------14------14----------15------|
------14------14-----10------10--|--12------------------15------15--|
--12--------------8--------------|------------------13--------------|


                                                                      
----------------------------------|----------14----------------------|
----------14--------------12------|------14------14----------15------|
------14------14------12------12--|--12------------------15------15--|
--12--------------10--------------|------------------13--------------|


                                                                     
---------------------------------|----------14----------------------|
----------14-------------10------|------14------14----------15------|
------14------14-----10------10--|--12------------------15------15--|
--12--------------8--------------|------------------13--------------|


                                                                      
----------------------------------|----------14----------------------|
----------14--------------12------|------14------14----------15------|
------14------14------12------12--|--12------------------15------15--|
--12--------------10--------------|------------------13--------------|


                                                                     
---------------------------------|----------14----------------------|
----------14-------------10------|------14------14----------15------|
------14------14-----10------10--|--12------------------15------15--|
--12--------------8--------------|------------------13--------------|


                                                                      
----------------------------------|----------14----------------------|
----------14--------------12------|------14------14----------15------|
------14------14------12------12--|--12------------------15------15--|
--12--------------10--------------|------------------13--------------|


                                                                     
---------------------------------|----------14----------------------|
----------14-------------10------|------14------14----------15------|
------14------14-----10------10--|--12------------------15------15--|
--12--------------8--------------|------------------13--------------|


                                                                      
----------------------------------|----------14----------------------|
----------14--------------12------|------14------14----------15------|
------14------14------12------12--|--12------------------15------15--|
--12--------------10--------------|------------------13--------------|


                                                                     
---------------------------------|----------14----------------------|
----------14-------------10------|------14------14----------15------|
------14------14-----10------10--|--12------------------15------15--|
--12--------------8--------------|------------------13--------------|


                                                                      
----------------------------------|----------14----------------------|
----------14--------------12------|------14------14----------15------|
------14------14------12------12--|--12------------------15------15--|
--12--------------10--------------|------------------13--------------|


                                                                     
---------------------------------|----------14----------------------|
----------14-------------10------|------14------14----------15------|
------14------14-----10------10--|--12------------------15------15--|
--12--------------8--------------|------------------13--------------|


                                                                         
---------------------------|------------------|-------------------------|
----------14------5--------|------------------|-------------------------|
------14------14--5--------|------------------|-------------------------|
--12--------------3--------|------------------|--5--5--5--5--5----5--5--|


                                            
-----------------------|
-----------------------|
------------------3----|
--5--5--5----3---------|





Comments


Popular Iron Maiden tabs & chords
Murders In The Rue Morgue 1 Bass Tabs
Journeyman 1 Chords
Another Life Drum Tabs
Montsegur Drum Tabs
Phantom Of The Opera Drum Tabs
Coming Home 2 Tabs
Deja Vu (Solo) Tabs
Fear Of The Dark 7 Tabs
Fortunes Of War Tabs
Seventh Son Of A Seventh Son Tabs


Song lyrics



↑ Back to top | Tablatures and chords are parodies/interpretations of the original songs. You may use it for private study, scholarship, research or language learning purposes only
© 2014 AZChords.com Contact us | Privacy policy | DMCA | Add/correct tabs | Request tabs | Top 50 tabs