>
 >
Different World

Different World Bass Tabs

Iron Maiden - Different World chords, tabs, tablatures, lyrics

Guitar lessons | Add/correct | Request | Top 50 tabs Artists:  A B C D E F G H I J K L M N O P Q R S T U V W X Y Z 0-9

Different World Bass Tabs – Iron Maiden

CD, Sheet music, Poster

Do you like Different World? Share with your friends now
Bass TabsTabsTabs v2
IRON MAIDEN
DIFFERENT WORLD 
BASSTAB



RIFF 1 :
                                                                             
G------------------------------------|------------------7-5-4---------|
D-----------------------4-5-7-5-4-0--|------------------------7-5-4-0-|
A--7-7-7-7-7-7-7-7---7---------------|-7-7-7-7-7-7-7-7----------------| X 2
E------------------------------------|--------------------------------|



VERSE :

G------------------------------------------------------------------------|
D------------------------------------------------------------------------|
A--7-7-7-7-7-7-7-7---7-7-7-7-7-7-7-7---3-3-3-3-3-3-3-3----------0--------| 
E----------------------------------------------------------0-2-3--3-2-0--|


G------------------------------------------------------------------------|
D------------------------------------------------------------------------|
A--7-7-7-7-7-7-7-7---7-7-7-7-7-7-7-7----------------------------0--------| 
E--------------------------------------3-3-3-3-3-3-3-3-----0-2-3--3-2-0--|


G------------------------------------------------------------------------|
D------------------------------------------------------------------------|
A--7-7-7-7-7-7-7-7---7-7-7-7-7-7-7-7---3-3-3-3-3-3-3-3----------0--------| 
E----------------------------------------------------------0-2-3--3-2-0--|


G-------------------------------------------------------------------------|
D-------------------------------------------------------------------------|
A--7-7-7-7-7-7-7-7---7-7-7-7-7-7-7-7---------------------5-5-5-5-5-5-5-5--| 
E--------------------------------------3-3-3-3-3-3-3-3--------------------|


REPEAT RIFF 1 (X 2)

REPEAT VERSE


CHORUS :

G----------------------------------------------------------------------|
D----------------------------------------------------------------------|
A-------------------3-3-3-3-3-3-3-3--0-0-0-0-0-0-0-0--3-3-3-3-3-3-3-3--|
E--3-3-3-3-3-3-3-3-----------------------------------------------------|

G----------------------------------------------------------------------|
D----------------------------------------------------------------------|
A-------------------3-3-3-3-3-3-3-3--7-7-7-7-7-7-7-7--5-5-5-5-5-5-5-5 -|
E--3-3-3-3-3-3-3-3-----------------------------------------------------|


G----------------------------------------------------------------------|
D----------------------------------------------------------------------|
A--7-7-7-7-7-7-7-7--3-3-3-3-3-3-3-3-------------------5-5-5-5-5-5-5-5--|
E------------------------------------3-3-3-3-3-3-3-3-------------------|


G----------------------------------------------------------------------|
D----------------------------------------------------------------------|
A--7-7-7-7-7-7-7-7--3-3-3-3-3-3-3-3-------------------5-5-5-5-5-5-5-5--|
E------------------------------------3-3-3-3-3-3-3-3-------------------|


BRIDGE :



G----------------------------------------------------------------------|
D----------------------------------------------------------------------|
A--7-7-7-7-7-7-7-7-------------------3-3-3-3-3-3-3-3--5-5-5-5-5-5-5-5--| x 3
E-------------------3-3-3-3-3-3-3-3------------------------------------|



G------------------------------------------------------------------------|
D------------------------------------------------------------------------|
A--0-0-0-0-0-0-0-0--3-3-3-3-3-3-3-3--5-5-5-5-5-5-5-5--5-5-5-5-5-5-3-2----|
E---------------------------------------------------------------------3--|



REPEAT CHORUS

RIFF 1 (X 1)
then:

G------------------------------------|------------------7-5-4-5-4-------------------|
D-----------------------4-5-7-5-4-0--|----------------------------7-5-9-7-5-4-7-5-4-|
A--7-7-7-7-7-7-7-7---7---------------|-7-7-7-7-7-7-7-7------------------------------|  
E------------------------------------|----------------------------------------------|


INTERLUDE :


G----------------------------------------------------------------------|
D----------------------------------------------------------------------|
A--7-7-7-7-7-7-7-7--3-3-3-3-3-3-3-3-------------------5-5-5-5-5-5-5-5--| x 3
E------------------------------------3-3-3-3-3-3-3-3-------------------|



G------------------------------------------------------------------------|
D------------------------------------------------------------------------|
A--7-7-7-7-7-7-7-7--3-3-3-3-3-3-3-3--5-5-5-5-5-5-5-5--5-5-5-5-5-5-3-2----|
E---------------------------------------------------------------------3--|


RIFF UNDER GUITAR SOLO :



G----------------------------------------------------------------------|
D----------------------------------------------------------------------|
A--7-7-7-7-7-7-7-7--3-3-3-3-3-3-3-3-------------------5-5-5-5-5-5-5-5--| x 3
E------------------------------------3-3-3-3-3-3-3-3-------------------|



G------------------------------------------------------------------------|
D------------------------------------------------------------------------|
A--3-3-3-3-3-3-3-3--2-2-2-2-2-2-2-2--5-5-5-5-5-5-5-5--5-5-5-5-5-5-3-2----|
E---------------------------------------------------------------------3--| 


REPEAT CHORUS 

REPEAT BRIDGE (X2)

REPEAT RIFF 1 (X 1)
then:

G------------------------------------|------------------------------------|
D-----------------------4-5-7-5-4-0--|-------------------9-9---10-9---9/--|
A--7-7-7-7-7-7-7-7---7---------------|-7-7-7-7-7-7-7-7---7-7-7-7--7-7-7/--| 
E------------------------------------|------------------------------------|





Comments


Popular Iron Maiden tabs & chords
Afraid To Shoot Strangers Drum Tabs
Gangland Drum Tabs
Blood Brothers Tabs
Dance Of Death 3 Tabs
Fear Of The Dark 8 Tabs
Ides Of March Tabs
Still Life 2 Tabs
To Tame A Land Tabs
Women In Uniform Tabs
Journeyman Ukulele


Song lyrics



↑ Back to top | Tablatures and chords are parodies/interpretations of the original songs. You may use it for private study, scholarship, research or language learning purposes only
© 2014 AZChords.com Contact us | Privacy policy | DMCA | Add/correct tabs | Request tabs | Top 50 tabs