» » »

Dance Of Death Tabs (ver.4)

Artists:  A B C D E F G H I J K L M N O P Q R S T U V W X Y Z # 

Dance Of Death Tabs (ver.4)

Iron Maiden
Rating:
0/5 (0 votes)

Hard to play? Try these video lessons and learn fast.
                (Intro)
Iron Maiden - Dance of Death (complete Intro)




First play the Gtr. 1 Part one time and then all three parts together!

If you found something to complain about in this tab please mail me (see below tab) 

_____________________________________________________________________________________________

Intro Gtr. I


e:-------------|-------------|-------------|-------------|
B:----0---0----|----3---3----|-------------|-------------|
G:-------------|-------------|----2---2----|----0---0----|
D:--2---2---2--|--4---4---4--|--0---0---0--|-------------|
A:-------------|-------------|-------------|--3---3---3--|
E:-------------|-------------|-------------|-------------|

e:-------------|-------------|-------------|-------------|
B:-------------|-------------|----0---0----|----0---0----|
G:----0---0----|----2---2----|-------------|-------------|
D:-------------|--0---0---0--|--2---2---2--|--2---2---2--|
A:--3---3---3--|-------------|-------------|-------------|
E:-------------|-------------|-------------|-------------|



_____________________________________________________________________________________________

Intro Gtr. II (the same as Gtr. 1)


e:-------------|-------------|-------------|-------------|
B:----0---0----|----3---3----|-------------|-------------|
G:-------------|-------------|----2---2----|----0---0----|
D:--2---2---2--|--4---4---4--|--0---0---0--|-------------|
A:-------------|-------------|-------------|--3---3---3--|
E:-------------|-------------|-------------|-------------|

e:-------------|-------------|-------------|-------------|
B:-------------|-------------|----0---0----|----0---0----|
G:----0---0----|----2---2----|-------------|-------------|
D:-------------|--0---0---0--|--2---2---2--|--2---2---2--|
A:--3---3---3--|-------------|-------------|-------------|
E:-------------|-------------|-------------|-------------|



_____________________________________________________________________________________________

Intro Gtr. III


e:--------------------|-------------------|----------------------------|-------------------|
B:--------------------|-12-12-------------|-12-12-15-12----------------|-12-12-------------|
G:-----11-12-14-12----|-------14-12-11----|-------------14-12-14-12----|-------14-12-11----|
D:--14-------------14-|----------------14-|-------------------------14-|----------------14-|
A:--------------------|-------------------|----------------------------|-------------------|
E:--------------------|-------------------|----------------------------|-------------------|




______________________________________________________________________________________________



Marian M. Misch (GTU-Forums: TripleM)


______________________________________________________________________________________________
            
Hard to play? Try these video lessons and learn fast. | Correct




comments powered by Disqus
↑ Back to top | Tablatures and chords are parodies/interpretations of the original songs. You may use it for private study, scholarship, research or language learning purposes only