» » »

Iron Maiden, Dance Of Death Tabs (ver.8)

Artists:  A B C D E F G H I J K L M N O P Q R S T U V W X Y Z # 

Dance Of Death Tabs (ver.8)

Iron Maiden Tabs
Rating:
0/5 (0 votes)
Hard to play? Try these video lessons and learn fast.
                
Intro:
e|--------------------------------------------------------------------------------------------------|
b|--------------------------------------------------------------------------------------------------|
g|--------------------------------------------------------------------------------------------------|
d|---9---9-------12----12-----------------------5---5------5---5------7---7------9---9------9---9---|
a|-7---7---7--10----10----10-----12----12-----3---3---3--3---3---3--5---5---5--7---7---7--7---7---7-|
E|----------------------------10----10----10--------------------------------------------------------|

Interlude:
e|--------------------------------------------------------------------------------------------------|
b|-5--7--8-10-8-5--12-12-10-8-7-5--12-12-15-12-10-8-10-12-10-8-5--12-12--10-8-7-5-------------------|
g|--------------------------------------------------------------------------------------------------|
d|--------------------------------------------------------------------------------------------------|
a|--------------------------------------------------------------------------------------------------|
E|--------------------------------------------------------------------------------------------------|

Fill In:
e|---------------------------------------------------|
b|--12--10--8--10--8--7--5---------------------------|
g|---------------------------------------------------|
d|---------------------------------------------------|
a|---------------------------------------------------|
E|---------------------------------------------------|

After That: 2 bars
e|--0------------------------------------------------|
b|--0------------------------------------------------|
g|--0------------------------------------------------|
d|--2------------------------------------------------|
a|--2------------------------------------------------|
E|--0------------------------------------------------|

At The Same Time:
e|---------------------------------------------------|
b|--5--5-5--7--7-7--3--3-3--5-5-5--------------------|
g|---------------------------------------------------|
d|---------------------------------------------------|
a|---------------------------------------------------|
E|---------------------------------------------------|

Second Part: Struming Chourds!
e|--0---0--0--0--0--0--------------------------------------|
b|--0---3--0--1--3--0--------------------------------------|
g|--0---2--2--0--2--0--------------------------------------|
d|--2---0--2--2--0--2--------------------------------------|
a|--2---0--0--3--0--2--------------------------------------|
E|--0---x--0--0--x--0--------------------------------------|

Pre Chours: (Only Guitar)
e|--------------------------------------------------------------------------|
b|--5-7-8-7-5-3-5--5-7-8-7-5-3-5--5-7-8-7-5-3-5--5-5-7-7-7-7--7-7-8-7-5-3-5-|
g|--------------------------------------------------------------------------|
d|--------------------------------------------------------------------------|
a|--------------------------------------------------------------------------|
E|--------------------------------------------------------------------------|

Pre Chours 2: (The Others Came In)
e|--------------------------------------------------------------------|
b|--5-7-8-7-5-7-8--8-10-12-10-8-7-10--5-7-8-7-5-7-8--7-7-7-7-8-7-5-3-5|
g|--------------------------------------------------------------------|
d|--------------------------------------------------------------------|
a|--------------------------------------------------------------------|
E|--------------------------------------------------------------------|

Meanwhile:
e|-----------------------------|
b|-----------------------------|
g|----------------7(4x)--5(4x)-|
d|--2(4x)--5(4x)--7------5-----|
a|--2------5------5------3-----|
E|--0------3-------------------|

Chours: ( With Heqvy Power :D )
e|---------------------------------------------------|
b|--------------8-7-5-7-8-7-5-8----------------------|
g|--------7--5---------------------------------------|
d|--2--5--7--5---------------------------------------|
a|--2--5--5--3---------------------------------------|
E|--0--3---------------------------------------------|

Chours: ( Second Time, Also Heavy :D )
e|---------------------------------------------------|
b|--------------8--7---------------------------------|
g|--------7--5---------------------------------------|
d|--2--5--7--5---------------------------------------|
a|--2--5--5--3---------------------------------------|
E|--0--3---------------------------------------------|

This two lines repeats a few times, i think you can figure it out by your self!

Pre Chours: (After Chours)
e|--------------------------------------------------------------------------|
b|--5-7-8-7-5-3-5--5-7-8-7-5-3-5--5-7-8-7-5-3-5--5-5-7-7-7-7--7-7-8-7-5-3-5-|
g|--------------------------------------------------------------------------|
d|--------------------------------------------------------------------------|
a|--------------------------------------------------------------------------|
E|--------------------------------------------------------------------------|

Pre Chours 2: (Still After Chours)
e|--------------------------------------------------------------------|
b|--5-7-8-7-5-7-8--8-10-12-10-8-7-10--5-7-8-7-5-7-8--7-7-7-7-8-7-5-3-5|
g|--------------------------------------------------------------------|
d|--------------------------------------------------------------------|
a|--------------------------------------------------------------------|
E|--------------------------------------------------------------------|

Meanwhile:
e|-----------------------------|
b|-----------------------------|
g|----------------7(4x)--5(4x)-|
d|--2(4x)--5(4x)--7------5-----|
a|--2------5------5------3-----|
E|--0------3-------------------|

This two or this 3 repeats I think!

SOLO:

Pre Solo (Not Correct)
e|----------------------------|
b|----------------------------|
g|--9--11-12--13-7--7-8-7---7-|
d|------------------------7---|
a|----------------------------|
E|----------------------------|

Meanwhile:
e|-----------------------------|
b|-----------------------------|
g|----------------7(4x)--5(4x)-|
d|--2(4x)--5(4x)--7------5-----|
a|--2------5------5------3-----|
E|--0------3-------------------|

Then the good and massive solo takes place, and I'm not so good at solos, so I
leave this to some one who really can this!

SECOND SOLO:

Don't know eihter :(, but the guitar plays like this, (Rythme Guitar).

e|-------------|
b|-------------|
g|-----7-------|
d|--4--7--2--4-|
a|--4--5--2--4-|
E|--2-----0--2-|

Then the interlude solo comes (Bridge to third solo). The second guitar plays as before)

e|----------------------------|
b|----------------------------|
g|--6-9-7-6-4-6-7-6--4-2-4-6--|
d|----------------------------|
a|----------------------------|
E|----------------------------|


Then comes the thrid solo :! Rythme Guitar plays like this I think. You have to
change the D and C fast...

e|------------|
b|------------|
g|--------7-5-|
d|--2--5--7-5-|
a|--2--5--5-3-|
E|--0--3------|

Then another Chours:

e|---------------------------------------------------|
b|--------------8-7-5-7-8-7-5-8----------------------|
g|--------7--5---------------------------------------|
d|--2--5--7--5---------------------------------------|
a|--2--5--5--3---------------------------------------|
E|--0--3---------------------------------------------|

e|---------------------------------------------------|
b|--------------8--7---------------------------------|
g|--------7--5---------------------------------------|
d|--2--5--7--5---------------------------------------|
a|--2--5--5--3---------------------------------------|
E|--0--3---------------------------------------------|

This two lines repeats a few times, i think you can figure it out by your self! ( De 'Ja Vu ;) )

Interlude Again.
e|----------------------------|
b|----------------------------|
g|--6-9-7-6-4-6-7-6--4-2-4-6--|
d|----------------------------|
a|----------------------------|
E|----------------------------|

e|-------------|
b|-------------|
g|-----7-------|
d|--4--7--2--4-|
a|--4--5--2--4-|
E|--2-----0--2-|

Play this 4 times

Back To The Pre Chours
e|--------------------------------------------------------------------------|
b|--5-7-8-7-5-3-5--5-7-8-7-5-3-5--5-7-8-7-5-3-5--5-5-7-7-7-7--7-7-8-7-5-3-5-|
g|--------------------------------------------------------------------------|
d|--------------------------------------------------------------------------|
a|--------------------------------------------------------------------------|
E|--------------------------------------------------------------------------|

Pre Chours 2: This should be it!
e|--------------------------------------------------------------------|
b|--5-7-8-7-5-7-8--8-10-12-10-8-7-10--5-7-8-7-5-7-8--7-7-7-7-8-7-5-3-5|
g|--------------------------------------------------------------------|
d|--------------------------------------------------------------------|
a|--------------------------------------------------------------------|
E|--------------------------------------------------------------------|

Meanwhile:
e|-----------------------------|
b|-----------------------------|
g|----------------7(4x)--5(4x)-|
d|--2(4x)--5(4x)--7------5-----|
a|--2------5------5------3-----|
E|--0------3-------------------|

Last Think Before Outro:
e|------------------------|
b|------------------------|
g|------------------------|
d|--2--5-2(Let This Ring)-|
a|--2--5-2----------------|
E|--0--3-0----------------|

Outro: ( Same As Intro :D )
e|--------------------------------------------------------------------------------------------------|
b|--------------------------------------------------------------------------------------------------|
g|--------------------------------------------------------------------------------------------------|
d|---9---9-------12----12-----------------------5---5------5---5------7---7------9---9------9---9---|
a|-7---7---7--10----10----10-----12----12-----3---3---3--3---3---3--5---5---5--7---7---7--7---7---7-|
E|----------------------------10----10----10--------------------------------------------------------|

e|--------------------------------------------------------------------------------------------------|
b|-5--7--8-10-8-5--12-12-10-8-7-5--12-12-15-12-10-8-10-12-10-8-5--12-12--10-8-7-5-------------------|
g|--------------------------------------------------------------------------------------------------|
d|--------------------------------------------------------------------------------------------------|
a|--------------------------------------------------------------------------------------------------|
E|--------------------------------------------------------------------------------------------------|

(Ending is just the Em, I think you got that)

And Thats All, I hope that the most of this tab was right..
            

comments powered by Disqus
↑ Back to top | Iron Maiden Tabs for Dance Of Death. Lyrics for acoustic guitar and electric guitar. Tablatures and chords are parodies/interpretations of the original songs. You may use it for private study, scholarship, research or language learning purposes only