» » »

Dance Of Death Bass tabs (ver.4)

Artists:  A B C D E F G H I J K L M N O P Q R S T U V W X Y Z # 

Dance Of Death Bass tabs (ver.4)

Iron Maiden
Rating:
0/5 (0 votes)

Hard to play? Try these video lessons and learn fast.
                This is how I play the song and it sounds perfect to me. Let me know if there are any mistakes

Intro [bass comes in after 10 seconds]
G|-------------------------------------------------------------------------|
D|---9---9------12---12------7---7------5---5------5---5------7---7--------|
A|-7---7---7--9----9----9--5---5---5--3---3---3--3---3---3--5---5---5------|
E|-------------------------------------------------------------------------|

----------------------|-----------------------------------------------|
---9---9------9---9---|---9---9------12---12------7---7------2---2----|
-7---7---7--7---7---7-|-7---7---7--9----9----9--5---5---5--0---0---0--|
----------------------|-----------------------------------------------|

---------------------------------------------|
---5---5------7---7------9---9------9---9----|
-3---3---3--5---5---5--7---7---7--7---7---7--|
---------------------------------------------|


Verse Part 1 [x2]
G|-------------------------------------------------------------------------|
D|---9---9------12---12------7---7------5---5------5---5------7---7--------|
A|-7---7---7--9----9----9--5---5---5--3---3---3--3---3---3--5---5---5------|
E|-------------------------------------------------------------------------|

----------------------|-----------------------------------------------|
---9---9------9---9---|---9---9------12---12------7---7------2---2----|
-7---7---7--7---7---7-|-7---7---7--9----9----9--5---5---5--0---0---0--|
----------------------|-----------------------------------------------|

---------------------------------------------|
---5---5------7---7------9---9------9---9----|
-3---3---3--5---5---5--7---7---7--7---7---7--|
---------------------------------------------|


Verse Part 2 [x2]
G|------------------------------------------------------------|
D|-9-9-9-9-9-12-12-12-12-12-7-7-7-7-7-5-5-5-5-5-5-5-5-5-5-5---|
A|-7-7-7-7-7-9--9--9--9--9--5-5-5-5-5-3-3-3-3-3-3-3-3-3-3-3---|
E|------------------------------------------------------------|

-------------------------------|-----------------------------|
-7-7-7-7-7-9-9-9-9-9-9-9-9-9-9-|-9-9-9-9-9-12-12-12-12-12----|
-5-5-5-5-5-7-7-7-7-7-7-7-7-7-7-|-7-7-7-7-7-9--9--9--9--9-----|
-------------------------------|-----------------------------|

---------------------------------------------------------------|
-7-7-7-7-7-2-2-2-2-2-5-5-5-5-5-7-7-7-7-7-9-9-9-9-9-9-9-9-9-9---|
-5-5-5-5-5-0-0-0-0-0-3-3-3-3-3-5-5-5-5-5-7-7-7-7-7-7-7-7-7-7---|
---------------------------------------------------------------|


Verse Part 3 [x3]
G|-9-9---12-12---7-7---5-5-5-5---7-7---9-9-9-9---|-9-9---12-12---7-7---2-2--|
D|-9-9---12-12---7-7---5-5-5-5---7-7---9-9-9-9---|-9-9---12-12---7-7---2-2--|
A|-7-7---10-10---5-5---3-3-3-3---5-5---7-7-7-7---|-7-7---10-10---5-5---0-0--|
E|-----------------------------------------------|--------------------------|

-5-5---7-7---9-9-9-9---|
-5-5---7-7---9-9-9-9---|
-3-3---5-5---7-7-7-7---|
-----------------------|


Interlude [x6]
G|--------------------------------------|
D|-----------------4-4-4-4h5p4----------|
A|-7-777-777-777-77-----------7-5-7-----|
E|--------------------------------------|


Verse Part 4 [x2]
G|-9-----------12----------------7-----------9-----------------------------|
D|-9-----------12----------------7-----------9-----------10-9-7---7--------|
A|-7-7-7-7-7-7-10-10-10-10-10-10-5-5-5-5-5-5-7-7-7-7-7-7--------10--10-9-7-|
E|-------------------------------------------------------------------------|

-9-----------12----------------7-----------9--------------------|
-9-----------12----------------7-----------9-----------10-9-----|
-7-7-7-7-7-7-10-10-10-10-10-10-5-5-5-5-5-5-7-7-7-7-7-7----------|
----------------------------------------------------------------|


Interlude[x6]


Solo 1 [x2]
G|-9-----------12----------------7-----------9-----------------------------|
D|-9-----------12----------------7-----------9-----------10-9-7---7--------|
A|-7-7-7-7-7-7-10-10-10-10-10-10-5-5-5-5-5-5-7-7-7-7-7-7--------10--10-9-7-|
E|-------------------------------------------------------------------------|

-9-----------12----------------7-----------9--------------------|
-9-----------12----------------7-----------9-----------10-9-----|
-7-7-7-7-7-7-10-10-10-10-10-10-5-5-5-5-5-5-7-7-7-7-7-7----------|
----------------------------------------------------------------|


Solo 2 [x4]
G|-11--------7-----------9-----------11-------------|
D|-11--------7-----------9-----------11-------------|
A|-9-9-9-9-9-5-5-5-5-5-5-7-7-7-7-7-7-9-9-9-9-9-9----|
E|--------------------------------------------------|


Solo 3 [x4]
G|-9-----------5-----------7-----------9-------------|
D|-9-----------5-----------7-----------9-------------|
A|-7-7-7-7-7-7-3-3-3-3-3-3-5-5-5-5-5-5-7-7-7-7-7-7---|
E|---------------------------------------------------|


Verse Part 4 [x1]
G|-9-----------12----------------7-----------9-----------------------------|
D|-9-----------12----------------7-----------9-----------10-9-7---7--------|
A|-7-7-7-7-7-7-10-10-10-10-10-10-5-5-5-5-5-5-7-7-7-7-7-7--------10--10-9-7-|
E|-------------------------------------------------------------------------|

-9-----------12----------------7-----------9--------------------|
-9-----------12----------------7-----------9-----------10-9-----|
-7-7-7-7-7-7-10-10-10-10-10-10-5-5-5-5-5-5-7-7-7-7-7-7----------|
----------------------------------------------------------------|


Interlude 2 [x1]
G|-9-----------5-----------7-----------9--------------|
D|-9-----------5-----------7-----------9--------------|
A|-7-7-7-7-7-7-3-3-3-3-3-3-5-5-5-5-5-5-7-7-7-7-7-7----|
E|----------------------------------------------------|


Interlude 1 [x9]


Interlude 1 Ending
G|------------------------|
D|------------------------|
A|-9--7---10--7---5---7---|
E|------------------------|


Verse1 4x
G|-----------------------------------------------------------------------|
D|---9---9------12---12------7---7------5---5------5---5------7---7------|
A|-7---7---7--9----9----9--5---5---5--3---3---3--3---3---3--5---5---5----|
E|-----------------------------------------------------------------------|

----------------------|------------------------------------------------|
---9---9------9---9---|---9---9------12---12------7---7------2---2-----|
-7---7---7--7---7---7-|-7---7---7--9----9----9--5---5---5--0---0---0---|
----------------------|------------------------------------------------|

-------------------------------------------|-------------------|
---5---5------7---7------9---9------9---9--|---9---9---9-------|
-3---3---3--5---5---5--7---7---7--7---7---7|-7---7---7---7~----|
-------------------------------------------|-------------------|

Have fun with that :)
Rate and comment :D
            
Hard to play? Try these video lessons and learn fast. | Correct




comments powered by Disqus
↑ Back to top | Tablatures and chords are parodies/interpretations of the original songs. You may use it for private study, scholarship, research or language learning purposes only