» » »

Iron Maiden, Dance Of Death Tabs (ver.7)

Artists:  A B C D E F G H I J K L M N O P Q R S T U V W X Y Z # 

Dance Of Death Tabs (ver.7)

Iron Maiden Tabs
Rating:
0/5 (0 votes)
Dance Of Death lessons Tabs too difficult? Try these video lessons and learn fast
                   -----------------------------------------------------------------------
   -----------------------------------------------------------------------

Tuning: Standard EADGBE

Sorry there's no solo for now (i was too lazy to transcribe it),but in a short
time I'll fix that..


 /  slide up
 \  slide down
 h  hammer-on
 p  pull-off
 ~  vibrato
/// strumming
 


Intro:
Clean:
E-------------------------------------------------------------|
B-------------------------------------------------------------|
G-------------------------------------------------------------|
D---9-9----12-12-----7-7----5-5----5-5----7-7----9-9----9-9---|
A--7-7-7--9--9--9---5-5-5--3-3-3--3-3-3--5-5-5--7-7-7--7-7-7--|
E-------------------------------------------------------------|

E-----------------------------------------
B------7-8-10-8--------12-12-10-----------
G---9-----------9--------------12-11-9----
D-----------------------------------------
A-----------------------------------------
E-----------------------------------------

E---------10-----------------------------------|
B---12--12--12-10--10------12-12-10------------|
G----------------12--12-------------12-11-9----|
D----------------------14----------------------|
A----------------------------------------------|
E----------------------------------------------|



1 Verse:
                                                                 
E-------------------------------------------------------------|
B-------------------------------------------------------------|
G-------------------------------------------------------------|
D--9-9-9--12-12-12--7-7-7--5-5-5--5-5-5--7-7-7--9-9-9--9-9-9--|
A--7-7-7--9--9--9---5-5-5--3-3-3--3-3-3--5-5-5--7-7-7--7-7-7--|
E-------------------------------------------------------------|

Fill:
E------------------|
B------------------|
G--7-5-4---4-5-4---|
D--------7---------|
A------------------|
E------------------|


2 Verse:
Acoustic guitar w/ Electric:             
Strum:///                   
E---------------------------------------------------------|
B---------------------------------------------------------|
G--9---12---7---------------------------9---12---7--------|
D--9---12---7---9---12--7---5---7---9---9---12---7--------|
A--7---9----5---7---9---5---3---5---7---7---9----5--------|
E---------------------------------------------------------|


Drums come in..
Strum:///
E-------------------------------------------|
B-------------------------------------------|
G-9---12---7--5-5--7---9--12-7---9----------|
D-9---12---7--5-5--7---9--12-7---9----------|
A-7---9----5--3-3--5---7--9--5---7----------|
E-------------------------------------------|




Order:
1X Riff 1 (Acoustic)
2X Riff 2
2X Riff 1 (Distorted)
2X Riff 2

Acoustic guitar:

Riff 1
E-----------------------------------------------------------
B-----7h8p7-------------7h8p7--------------7h8p7------------
G--9--------9p7-9----9---------9p7-9----9---------9p7-9-----
D-----------------------------------------------------------
A-----------------------------------------------------------
E-----------------------------------------------------------

E--------------------------------------|
B-------7-7-7--7-7-7-7h8p7-------------|
G-9-9-9---------------------9p7-7------|
D--------------------------------------|
A--------------------------------------|
E--------------------------------------|


Riff 2
Distorted guitar w/keyboards:
E------------------------------------------------------------
B------7h8p7---7-8------10h12p10-----------------------------
G---9--------9--------12--------12p11-12--11-11-11p9----9-11-
D----------------------------------------------------12------
A------------------------------------------------------------
E------------------------------------------------------------

E-----------------------|
B---------7h8p7---------|
G----9-9-------9p7-9----|
D-----------------------|
A-----------------------|
E-----------------------|



Rhytme:                      End 1:                End 2:   (Little fill)
Solo and verse:
E------------------------|---------------------|---------|-----------|
B------------------------|---------------------|---------|--8~~--7~--|
G--9-11-12---14-7--11-9--|-9p7-----------------|---5-4---|-----------|
D--9-11-12---14-7--11-9--|----10p9-10-9-7------|---5-4---|-----------|
A--7-9--10---12-5--9--7--|----------------10---|---3-2---|-----------|
E------------------------|---------------------|---------|-----------|




Harmony:
E-------------------------------------------------
B-------------------------------------------------
G-------7-----------------------------------------
D---9----10-9--7-9--10-9--7----7----7-7/9---------
A---------------------------10---10---------------
E-------------------------------------------------

                                           End w/:
E----------------------------------------|---------|
B----------------------------------------|---------|
G-------7--------------------------------|--10-9---|
D---9----10-9-7-9-10--9-7---7------------|--10-9---|
A-------------------------10--10p9--7----|--8--7---|
E----------------------------------------|---------|



Outro:
E-----------------------
B-----------------------
G--7-9---12-9---7-9-----
D--7-9---12-9---7-9-----
A--5-7---10-7---5-7-----
E-----------------------

E-------------------------------------------------------------|
B-------------------------------------------------------------|
G-------------------------------------------------------------|
D---9-9----12-12-----7-7----5-5----5-5----7-7----9-9----9-9---|
A--7-7-7--9--9--9---5-5-5--3-3-3--3-3-3--5-5-5--7-7-7--7-7-7--|
E-------------------------------------------------------------|


E------------------------------------------------------------
B-------8---------------7-8-10-8--------12-12-10-------------
G--7-9----9--7--9~~~~~9----------9--------------12-11-9------
D------------------------------------------------------------
A------------------------------------------------------------
E------------------------------------------------------------


E---------10------------------------------------|
B---12--12--12--10--10------12-12-10------------|
G-----------------12--12-------------12-11-9----|
D------------------------14---------------------|
A-----------------------------------------------|
E-----------------------------------------------|

End W/:
(quitely fading out...)
E-----------------|
B---------8-------|
G-------9-----9---|
D-----9-----9-----|
A---7-------------|
E-----------------|



Song order:

Intro
Verse 1
Verse 2
Riff 1
Riff 2
Riff 1
Riff 2
Rhytme verse
Riff 2
Solo (w/rythme)
Rythme verse
Harmony 2X
Outro
========================================================================
            
Submit corrections

comments powered by Disqus
↑ Back to top | Iron Maiden Tabs for Dance Of Death. Lyrics for acoustic guitar and electric guitar. Tablatures and chords are parodies/interpretations of the original songs. You may use it for private study, scholarship, research or language learning purposes only