>
 >
Dance Of Death 2

Dance Of Death 2 Guitar Tabs

Iron Maiden - Dance Of Death 2 chords, tabs, tablatures, lyrics

Guitar lessons | Add/correct | Request | Top 50 tabs Artists:  A B C D E F G H I J K L M N O P Q R S T U V W X Y Z 0-9

Dance Of Death 2 Guitar Tabs – Iron Maiden

CD, Sheet music, Poster

Do you like Dance Of Death 2? Share with your friends now
Bass TabsBass Tabs v2Bass Tabs v3Bass Tabs v4ChordsTabsTabs v2Tabs v3Tabs v4Tabs v5Tabs v6Tabs v7Ukulele
Gtr I (E A D G B E) - 'Dance of Death'

Intro

|-------------------------------------------------------------------|
|-------------------------------------------------------------------|
|-------------------------------------------------------------------|
|--9--9------12--12------7-7-----5-5----5-5-----7-7----9-9----9-9---|
|-7-7--7---9---9---9----5-5-5---3-3-3--3-3-3---5-5-5--7-7-7--7-7-7--|
|-------------------------------------------------------------------|

|-------------------------------------------------------------------|
|-------------------------------------------------------------------|
|-------------------------------------------------------------------|
|--9--9------12--12------7-7------------5-5-----7-7----9-9----9-9---|
|-7-7--7---9----9--9----5-5-5---7-7----3-3-3---5-5-5--7-7-7--7-7-7--|
|------------------------------5-5-5--------------------------------|


|---------------------7-7--------------|
|---7--8---10-8-----------10-8-7-------|
|-9--------------9---------------9-----|
|--------------------------------------|
|--------------------------------------|
|--------------------------------------|


|-7-7--10-7---------------7-7------------|
|-----------10-8-10-8---------10-8-7-----|
|---------------------9---------------9--|
|----------------------------------------|
|----------------------------------------|
|----------------------------------------|

(it sounds like fingerpicking to me or just quick picking, not too sure)

1:09

|-----------------------------------------------------------------------------|
|-----------------------------------------------------------------------------|
|----------------------------------------------------------7------------------|
|-99999---1212121212---77777---55555--55555--77777--99999----10-9-7-9-10-9~~--|
|-77777---1010101010---55555---33333--33333--55555--77777---------------------|
|-----------------------------------------------------------------------------|


|-----------------------------------------------------------------------------|
|-----------------------------------------------------------------------------|
|----------------------------------------------------------7------------------|
|-99999---1212121212---77777----------55555--77777--99999----10-9-7-9-10-9~~--|
|-77777---1010101010---55555---77777--33333--55555--77777---------------------|
|------------------------------55555------------------------------------------|

Strumming part (listen to song to get right strum pattern - repeats like 8 times)
1:45

|-----------------------------------------------------------------------------|
|-----------------------------------------------------------------------------|
|-----------------------------------------------------------------------------|
|-9-9-9--/11-\7-- -9-9-9--/11-\7----9-9---11-11---7-7-------5-5---7-7---9-9---|
|-7-7-7--/9--\5----7-7-7--/9--\5----7-7----9--9---5-5--7-7--3-3---5-5---7-7---|
|------------------------------------------------------5-5--------------------|

end part slower
2:50

|-----------|
|-----------|
|--5--7--9--|
|--5--7--9--|
|--3--5--7--|
|-----------|


Interlude w/symphony
3:01

  E  E E  E E E q    E  E E  E E E q   
|--------------------------------------|
|------8------------------8------------|
|-9-11---11-9-7-9----9-11---11-9-7-9---|
|--------------------------------------|
|--------------------------------------|
|--------------------------------------|

E   E E  E E E q   E E  Q  E  E  Q
-------------------------------------|
-----8-------------------------------|
9-11---11-9-7-9----9-9-11-11-11-11---|
-------------------------------------|
-------------------------------------|
-------------------------------------|

   E  E E  E E E Q   E  E E  E E  E Q   
|-------------------------------------|
|-------8-----------------8---------8-|
|-11-11---11-9-7-9---9-11---11-9-11---|
|-------------------------------------|
|-------------------------------------|
|-------------------------------------|

E  E  E  E E  E Q    E  E E  E E E  Q
---------------------------------------|
8-10-12-10-8----8---------8------------|
-------------11-----11-11---11-9-7-11--|
---------------------------------------|
---------------------------------------|
---------------------------------------|

   E  E E  E E E Q    E  E E  E E  E Q
|-------------------|-------------------|
|-------8-----------|------8---------8--|
|-11-11---11-9-7-9--|-9-11---11-9-11----|
|-------------------|-------------------|
|-------------------|-------------------|
|-------------------|-------------------|


  E  E  E  E E  E Q     E  E E  E E E  Q
|--------------------|--------------------|
|-8-10-12-10-8----8--|-------8------------|
|--------------11----|-11-11---11-9-7-11--|
|--------------------|--------------------|
|--------------------|--------------------|
|--------------------|--------------------|


   E  E E  E E E Q    E  E E  E E E q    
|-------------------|------------------|
|-------8-----------|------8-----------|
|-11-11---11-9-7-9--|-9-11---11-9-7-9--|
|-------------------|------------------|
|-------------------|------------------|
|-------------------|------------------|

 E  E E  E E E q    E E  Q   E  E  Q
------------------|-------------------|
------8-----------|-------------------|
-9-11---11-9-7-9--|-9-9-11--11-11-11--|
------------------|-------------------|
------------------|-------------------|
------------------|-------------------|

   E  E E  E E E Q    E  E E  E E E q    
|-------------------|------------------|
|-------8-----------|------8-----------|
|-11-11---11-9-7-9--|-9-11---11-9-7-9--|
|-------------------|------------------|
|-------------------|------------------|
|-------------------|------------------|

E  E E  E E E q    E E  Q   E  E  Q 
------------------|-------------------|
------8-----------|-------------------|
-9-11---11-9-7-9--|-9-9-11--11-11-11--|
------------------|-------------------|
------------------|-------------------|
------------------|-------------------|


   E  E E  E E E Q    E  E E  E E  E Q
|-------------------|-------------------|
|-------8-----------|------8---------8--|
|-11-11---11-9-7-9--|-9-11---11-9-11----|
|-------------------|-------------------|
|-------------------|-------------------|
|-------------------|-------------------|


  E  E  E  E E  E Q     E  E E  E E E  Q
|--------------------|--------------------|
|-8-10-12-10-8----8--|-------8------------|
|--------------11----|-11-11---11-9-7-11--|
|--------------------|--------------------|
|--------------------|--------------------|
|--------------------|--------------------|


   E  E E  E E E Q    E  E E  E E  E Q
|-------------------|-------------------|
|-------8-----------|------8---------8--|
|-11-11---11-9-7-9--|-9-11---11-9-11----|
|-------------------|-------------------|
|-------------------|-------------------|
|-------------------|-------------------|


  E  E  E  E E  E Q     E  E E  E E E  Q
|--------------------|--------------------|
|-8-10-12-10-8----8--|-------8------------|
|--------------11----|-11-11---11-9-7-11--|
|--------------------|--------------------|
|--------------------|--------------------|
|--------------------|--------------------|


   E  E E  E E E Q
|---------------------|
|-------8-------------|
|-11-11---11-9-7-9----|
|---------------------|
|---------------------|
|---------------------|

3:32
|-------------------------------------------------------------------|
|-------------------------------------------------------------------|
|----------------------------------5-4-2---2------------------------|
|--9----11 12----14--7----12--9----------5---5-4-2------------------|
|--7----9--10----12--5----10--7-------------------------------------|
|-------------------------------------------------------------------|

|-------------------------------------------------------------------|
|-------------------------------------------------------------------|
|-------------------------------------------------------------------|
|--9----11 12----14--7----12--9-------------------------------------|
|--7----9--10----12--5----10--7-------10---9------------------------|
|--------------------------------------8---7------------------------|

|-------------------------------------------------------------------|
|-------------------------------------------------------------------|
|----------------------------------5-4-2---2------------------------|
|--9----11 12----14--7----12--9----------5---5-4-2------------------|
|--7----9--10----12--5----10--7-------------------------------------|
|-------------------------------------------------------------------|

|-------------------------------------------------------------------|
|-------------------------------------------------------------------|
|-------------------------------------------------------------------|
|--9----11 12----14--7----12--9-------------------------------------|
|--7----9--10----12--5----10--7-------10---9------------------------|
|--------------------------------------8---7------------------------|

repeat interlude part at 4:02

4:33 repeat this rhythm under solo 1

|-------------------------------------------------------------------|
|-------------------------------------------------------------------|
|----------------------------------5-4-2---2------------------------|
|--9----11 12----14--7----12--9----------5---5-4-2------------------|
|--7----9--10----12--5----10--7-------------------------------------|
|-------------------------------------------------------------------|

|-------------------------------------------------------------------|
|-------------------------------------------------------------------|
|-------------------------------------------------------------------|
|--9----11 12----14--7----12--9-------------------------------------|
|--7----9--10----12--5----10--7-------10---9------------------------|
|--------------------------------------8---7------------------------|

|-------------------------------------------------------------------|
|-------------------------------------------------------------------|
|----------------------------------5-4-2---2------------------------|
|--9----11 12----14--7----12--9----------5---5-4-2------------------|
|--7----9--10----12--5----10--7-------------------------------------|
|-------------------------------------------------------------------|

|-------------------------------------------------------------------|
|-------------------------------------------------------------------|
|-------------------------------------------------------------------|
|--9----11 12----14--7----12--9-------------------------------------|
|--7----9--10----12--5----10--7-------10---9------------------------|
|--------------------------------------8---7------------------------|

5:02 play this rhythym under Solo 2

|-------------------------------------------------------------------|
|-------------------------------------------------------------------|
|-------------------------------------------------------------------|
|--11--- 14--7---14--9---14--11------11--- 14--7---14--9---14--11---|
|--9-----12--5---12--7---12--9-------9-----12--5---12--7---12--9----|
|-------------------------------------------------------------------|

|-------------------------------------------------------------------|
|-------------------------------------------------------------------|
|-------------------------------------------------------------------|
|--9----11 12----14--7----12--9-------------------------------------|
|--7----9--10----12--5----10--7-------10---9------------------------|
|--------------------------------------8---7------------------------|


5:17 slow harmony solo

|------------------------------------------------|
|------------------------------------------------|
|-----9--7-----------7---------------------------|
|-11~-------11-9--11----11-9--7--9--7--9/11~~~---|
|------------------------------------------------|
|------------------------------------------------|

|------------------------------------------------|
|------------------------------------------------|
|-----9--7-----------7---------------------------|
|-11~-------11-9--11----11-9--7--9--7--6---------|
|----------------------------------------9~~~----|
|------------------------------------------------|

|------------------------------------------------|
|------------------------------------------------|
|-----9--7-----------7---------------------------|
|-11~-------11-9--11----11-9--7--9--7--9/11~~~---|
|------------------------------------------------|
|------------------------------------------------|

|------------------------------------------------|
|------------------------------------------------|
|-----9--7-----------7---------------------------|
|-11~-------11-9--11----11-9--7--9--7--6---------|
|----------------------------------------9~~~----|
|------------------------------------------------|

5:46 Rhythm under solo 3

|-------------------------------------------------------------------|
|-------------------------------------------------------------------|
|-------------------------------------------------------------------|
|--9--- 12--5---12--7---12--9------9--- 12--5---12--7---12--9-------|
|--7----10--3---10--5---10--7------7----10--3---10--5---10--7-------|
|-------------------------------------------------------------------|

|-------------------------------------------------------------------|
|-------------------------------------------------------------------|
|-------------------------------------------------------------------|
|--9--- 12--5---12--7---12--9------9--- 12--5---12--7---12--9-------|
|--7----10--3---10--5---10--7------7----10--3---10--5---10--7-------|
|-------------------------------------------------------------------|

6:15
|-------------------------------------------------------------------|
|-------------------------------------------------------------------|
|----------------------------------5-4-2---2------------------------|
|--9----11 12----14--7----12--9----------5---5-4-2------------------|
|--7----9--10----12--5----10--7-------------------------------------|
|-------------------------------------------------------------------|

|-------------------------------------------------------------------|
|-------------------------------------------------------------------|
|-------------------------------------------------------------------|
|--9----11 12----14--7----12--9-------------------------------------|
|--7----9--10----12--5----10--7-------10---9------------------------|
|--------------------------------------8---7------------------------|


6:29 slow harmony solo 2
|------------------------------------------------|
|------------------------------------------------|
|-----7--5-----------5---------------------------|
|-9~---------9-7--9------9-7--5--7--5--7/9~~-----|
|------------------------------------------------|
|------------------------------------------------|

|------------------------------------------------|
|------------------------------------------------|
|-----7--5-----------5---------------------------|
|-9~---------9-7--9------9-7--5--7--5--4---------|
|----------------------------------------7~~~----|
|------------------------------------------------|

|------------------------------------------------|
|------------------------------------------------|
|-----7--5-----------5---------------------------|
|-9~---------9-7--9------9-7--5--7--5--7/9~~-----|
|------------------------------------------------|
|------------------------------------------------|

|------------------------------------------------|
|------------------------------------------------|
|-----7--5-----------5---------------------------|
|-9~---------9-7--9------9-7--5--7--5--4---------|
|----------------------------------------7~~~----|
|------------------------------------------------|

|----------------------------------|
|----------------------------------|
|----------------------------------|
|----------------------------------|
|----10---9------------------------|
|-----8---7------------------------|


6:58  repeat interlude part

7:42 outro

|----------------------------------|
|---8--------8---------8-----------|
|-----9~~------9~~--------9~~------|
|----------------------------------|
|----------------------------------|
|----------------------------------|

|-------------------------------------------------------------------|
|-------------------------------------------------------------------|
|-------------------------------------------------------------------|
|--9--9------12--12------7-7-----5-5----5-5-----7-7----9-9----9-9---|
|-7-7--7---9---9---9----5-5-5---3-3-3--3-3-3---5-5-5--7-7-7--7-7-7--|
|-------------------------------------------------------------------|

|-------------------------------------------------------------------|
|-------------------------------------------------------------------|
|-------------------------------------------------------------------|
|--9--9------12--12------7-7------------5-5-----7-7----9-9----9-9---|
|-7-7--7---9---9---9----5-5-5---7-7----3-3-3---5-5-5--7-7-7--7-7-7--|
|------------------------------5-5-5--------------------------------|


|---------------------7-7--------------|
|---7--8---10-8-----------10-8-7-------|
|-9--------------9---------------9-----|
|--------------------------------------|
|--------------------------------------|
|--------------------------------------|


|-7-7--10-7---------------7-7------------|
|-----------10-8-10-8---------10-8-7-----|
|---------------------9---------------9--|
|----------------------------------------|
|----------------------------------------|
|----------------------------------------|

|-------------------------------------------------------------------|
|-------------------------------------------------------------------|
|-------------------------------------------------------------------|
|--9--9------12--12------7-7-----5-5----5-5-----7-7----9-9----9-9---|
|-7-7--7---10--10--10---5-5-5---3-3-3--3-3-3---5-5-5--7-7-7--7-7-7--|
|-------------------------------------------------------------------|
                                        slower until end
|-------------------------------------------------------------------|
|-----------------------------------------------------------8-------|
|---------------------------------------------------------9---9-----|
|--9--9------12--12------7-7------------5-5-----7-7-----9-----------|
|-7-7--7---10--10--10---5-5-5---7-7----3-3-3---5-5-5---7------------|
|------------------------------5-5-5--------------------------------|





Comments


Popular Iron Maiden tabs & chords
Holy Smoke Bass Tabs
Wildest Dreams 1 Bass Tabs
Another Life Drum Tabs
Aces High 11 Tabs
Aces High 2 Tabs
Aces High 5 Tabs
Coming Home 2 Tabs
Drifter 1 Tabs
Hallowed Be Thy Name 2 Tabs
Aces High Ukulele


Song lyrics



↑ Back to top | Tablatures and chords are parodies/interpretations of the original songs. You may use it for private study, scholarship, research or language learning purposes only
© 2014 AZChords.com Contact us | Privacy policy | DMCA | Add/correct tabs | Request tabs | Top 50 tabs