» » »

Iron Maiden, Communication Breakdown Tabs (ver.1)

Artists:  A B C D E F G H I J K L M N O P Q R S T U V W X Y Z # 

Communication Breakdown Tabs (ver.1)

Iron Maiden Tabs
 Rating:
4/5 (4 votes)
Communication Breakdown lessons Tabs too difficult? Try these video lessons and learn fast
                communication breakdown


iron maiden






solo
        5 times                                              4 times
e:---------------------------|-12b~~~~--12b~~~~--12b~~~~-|-------------|-------------------|
B:-----12h15p12-----12h15p12-|-15b~~~~--15b~~~~--15b~~~~-|-12h15p12----|-------------------|
G:-14b----------14b----------|---------------------------|----------14-|-12h14p12-11h12p11-|
D:---------------------------|---------------------------|-------------|-------------------|
A:---------------------------|---------------------------|-------------|-------------------|
E:---------------------------|---------------------------|-------------|-------------------|

e:------------------------------------------------------------------7h10p7----7h10p7----|
B:---------------------------------------------------------------10--------10--------10-|
G:-9h11p9-7h9p7-5h7p5-4h5p4-2ahb~~~~---7b~~~~~~~~---7ahbp5------------------------------|
D:---------------------------------------------------------7~~~-------------------------|
A:--------------------------------------------------------------------------------------|
E:--------------------------------------------------------------------------------------|

                   3 times      5 times
e:-7h10p7-7h10p7-|----7h10p7-|-----12-12-|-12h15p12----12----------------------------------|
B:---------------|-10--------|-----12-12-|----------15----15-12h15p12----12----------------|
G:---------------|-----------|-14b-------|----------------------------14----14-12h14p12----|
D:---------------|-----------|-----------|----------------------------------------------14-|
A:---------------|-----------|-----------|-------------------------------------------------|
E:---------------|-----------|-----------|-------------------------------------------------|

:-------------------------------------------------------------22b-----|
:------------------------------------------------------17-20----------|
:-12---------------------------------------------17-19----------------|
:----14--12h14p12----12--------------------17-19----------------------|
:-----------------14----14-12-14/19--17-19----------------------------|
:---------------------------------------------------------------------|

intro 
e:-------------------------|
B:-------------------3-----|
G:-------------------2--2--|
D:-2-----------------0--2--|
A:-2--2-2-2-2-2-2-2-----0--|
E:-0--0-0-0-0-0-0-0--------|
            
Submit corrections

comments powered by Disqus
↑ Back to top | Iron Maiden Tabs for Communication Breakdown. Lyrics for acoustic guitar and electric guitar. Tablatures and chords are parodies/interpretations of the original songs. You may use it for private study, scholarship, research or language learning purposes only