» » »

Iron Maiden, Childhood's End Bass tabs (ver.1)

Artists:  A B C D E F G H I J K L M N O P Q R S T U V W X Y Z # 

Childhood's End Bass tabs (ver.1)

Iron Maiden Tabs
Rating:
0/5 (0 votes)
Childhood's End lessons Tabs too difficult? Try these video lessons and learn fast
                G:----------------------------------------------------|
D:----------------------------------------------------|
A:--9------5------7-----2--4--------------------------|
E:----------------------------------------------------|


Chorus(without lyrics)

G:---------------------------------------------------------------|
D:---------------------------------------------------------------|
A:--999999999999--------------777777777777-----------------------|  x2
E:---------------555555555555--------------333333-555555---------|


Verse

G:------------------------------------------------------------|
D:------------------------------------------------------------|
A:------------------------------------------------------------|  x2
E:--22222222-2-2--555555555-5-5-00000000-0-0-22-22-22-55-55-5-|

Chorus

G:---------------------------------------------------------------|
D:---------------------------------------------------------------|
A:--999999999999--------------777777777777-----------------------|  x2
E:---------------555555555555--------------333333-555555---------|

Verse

G:------------------------------------------------------------|
D:------------------------------------------------------------|
A:------------------------------------------------------------|  x2
E:--22222222-2-2--555555555-5-5-00000000-0-0-22-22-22-55-55-5-|


Chorus

G:---------------------------------------------------------------|
D:---------------------------------------------------------------|
A:--999999999999--------------777777777777-----------------------|  x2
E:---------------555555555555--------------333333-555555---------|

Interlude

G:-----------------------------------------|
D:-----------------------------------------|
A:--9999999-55555555-77777777-99999999-----|
E:-----------------------------------------|

G:-----------------------------------------|
D:-----------------------------------------|
A:--9999999-55555555-77777777--------------|
E:-----------------------------------------|

G:-------------------------2---------------|
D:---------------2-4-2-4-5-----------------|
A:--2-0-2-45-4-5---------------------------|
G:-----------------------------------------|

G:-----------------------------------------|
D:-----------------------------------------|
A:--9999999-55555555-77777777--------------|
E:-----------------------------------------|
            

comments powered by Disqus
↑ Back to top | Iron Maiden Bass for Childhood's End. Lyrics for acoustic guitar and electric guitar. Tablatures and chords are parodies/interpretations of the original songs. You may use it for private study, scholarship, research or language learning purposes only