>
 >
Caught Somewhere In Time 3

Caught Somewhere In Time 3 Guitar Tabs

Iron Maiden - Caught Somewhere In Time 3 chords, tabs, tablatures, lyrics

Guitar lessons | Add/correct | Request | Top 50 tabs Artists:  A B C D E F G H I J K L M N O P Q R S T U V W X Y Z 0-9

Caught Somewhere In Time 3 Guitar Tabs – Iron Maiden

CD, Sheet music, Poster

Do you like Caught Somewhere In Time 3? Share with your friends now
Bass TabsTabsTabs v2Tabs v3Tabs v4Tabs v5
------------------------------------------------------------------------
------------------------------------------------------------------------

This tab is just the original by Nick Miller with some errors corrected.
Thanks Nick. Also, please note the symbol for tremolo picking (+).

Tuning: Standard (EADGBe)

| /  slide up
| \  slide down
| h  hammer-on
| p  pull-off
| ~  vibrato
| +  tremolo pick

Intro
x3

|-----------------------------------|-----------------------------------|
|--15b17--15-12----13-15p13p12--13--|--15b17--15-12----13-15p13p12------|
|-----------------------------------|-------------------------------14--|
|-----------------------------------|-----------------------------------|
|-----------------------------------|-----------------------------------|
|-----------------------------------|-----------------------------------|

|-----------------------------------|-----------------------------------|
|--15b17--15-12----13-15p13p12--13--|--15b17--15--15b17r15--12---13-15--|
|-----------------------------------|-----------------------------------|
|-----------------------------------|-----------------------------------|
|-----------------------------------|-----------------------------------|
|-----------------------------------|-----------------------------------|

I think the intro is played in 3 different positions by guitar 1
whilst guitar 2 just plays the above riff 3 times

1st time -  G --14b16--14-11----12-14p12p11--12--

2nd "  " -  B --15b17--15-12----13-15p13p12--13--

3rd "  " -  E --15b17--15-12----13-15p13p12--13--


Riff 1

|-------------------------------------------------|
|12-----------------------------------------------|
|---14-12-12--11-12-14--12-14-12-11-12-11---------|
|-----------------------------------------14-14~~-|
|-------------------------------------------------|
|-------------------------------------------------|

|-------------------------------------------------|
|-12----------------------------------------------|
|---14-12-12--11-12-14--12-14-12-11-12--11h12p11\-|
|-------------------------------------------------|
|-------------------------------------------------|
|-------------------------------------------------|

|-------------------------------------------------|
|12-----------------------------------------------|
|---14-12-12--11-12-14--12-14-12-11-12-11---------|
|-----------------------------------------14-14~~-|
|-------------------------------------------------|
|-------------------------------------------------|

|--------------------------------------------------|
|--12---------------------------------16b17--16~~--|
|-----14-12-12--11-12-14--12-14-12-11--------------|
|--------------------------------------------------|
|--------------------------------------------------|
|--------------------------------------------------|


Verse riff
x2

(Strumming is not exact, listen to the song)

  If you have... an open mind...

|-----------------------------|
|-----------------------------|
|-99999999999----55555555555-7|
|-99999999999----55555555555-7|
|-77777777777----33333333333-5|
|-00000000000-----------------|


Riff 2
x2
     Time.......side

|---------------------------------|
|---------------------------------|
|----2----------------------------|
|----2----------3----5----2--5----|
|----0----------3----5----2--5----|
|---------------1----3----0--3----|

        Time ... x2

Riff 3

|------------------------------------|
|------------------------------------|
|----999999-999999-----7777--9999----|
|----999999-999999-----7777--9999----|
|----777777-777777-----5555--7777----|
|----000000-000000-----------0000----|


Riff 4
x16 total

First Half (2x):
|---------------------------|\
|---------------------------| \
|---------------------------|  \
|---5-4h5p4-0----5-4h5p4--0-|   \
|-3-----------3-------------|    \
|---------------------------|     \
                                   \                              
Second Half (2x):                   ---- play this 2x
                                   /
|---------------------------|     /
|---------------------------|    /
|---------------------------|   /
|---5-4h5p4-0----5-4h5p4--0-|  /
|-0-----------0-------------| /
|---------------------------|/

harmonize with riff below second time through

|---------------------------|
|---------------------------|
|---------------------------|
|---9-7h9p7------9-7h9p7----|
|-7--------10--7--------10--|
|---------------------------|


Chorus

There is a lot of stuff going on with the other guitars during the
chorus, but I haven't the time or the skill to do it correctly.
Mediocrity is not my style, so I'm not going to guess.

     Caught.........time          Caught.........time

|----------------------------|---------------------------------|
|----------------------------|---------------------------------|
|----9--------------5--------|----9--------------5-------2-----|
|----9--------------5--------|----9--------------5-------2-----|
|----7--------------3--------|----7--------------3-------0-----|
|----0-----------------------|----0----------------------------|

|----------------------------|---------------------------------|
|----------------------------|---------------------------------|
|----9--------------5--------|----7----------9---------12------|
|----9--------------5--------|----7----------9---------12------|
|----7--------------3--------|----5----------7---------10------|
|----0-----------------------|---------------------------------|

     Caught.........time          Caught.........time
     Caught.........time          Caught.........time

Riff 5
x2

|------------------------------------|
|------------------------------------|
|------------------------------------|
|----------------7-------------------|
|-777771077777777-777771077777777777-|
|------------------------------------|
  ++++++++++++++++++++++++++++++++++

|------------------------------------|
|------------------------------------|
|------------------------------------|
|------------------777777777-----0---|
|-0777771077777777-----------10-9----|
|------------------------------------|
  +++++++++++++++++++++++++++

Unfortunately, I'm nowhere near good enough to tab the solo. Sorry guys... 

Structure

Intro
Riff 1
verse riff
Riff 2
verse riff
Riff 2
Riff 3
Riff 4
Chorus x2
Riff 5
Solo
Riff 1
verse riff
Riff 2
Riff 3
Riff 4
Chorus x2
Outro

===============================================================================





Comments


Popular Iron Maiden tabs & chords
2 Minutes To Midnight 1 Tabs
Children Of The Damned 2 Tabs
Dance Of Death 4 Tabs
Different World Tabs
Fear Of The Dark 8 Tabs
From Here To Eternity Tabs
Ides Of March 1 Tabs
Infinite Dreams Intro Tabs
Rime Of The Ancient Mariner 1 Tabs
Tailgunner Tabs


Song lyrics



↑ Back to top | Tablatures and chords are parodies/interpretations of the original songs. You may use it for private study, scholarship, research or language learning purposes only
© 2014 AZChords.com Contact us | Privacy policy | DMCA | Add/correct tabs | Request tabs | Top 50 tabs