>
 >
Caught Somewhere In Time

Caught Somewhere In Time Bass Tabs

Iron Maiden - Caught Somewhere In Time chords, tabs, tablatures, lyrics

Guitar lessons | Add/correct | Request | Top 50 tabs Artists:  A B C D E F G H I J K L M N O P Q R S T U V W X Y Z 0-9

Caught Somewhere In Time Bass Tabs – Iron Maiden

CD, Sheet music, Poster

Do you like Caught Somewhere In Time? Share with your friends now
Bass TabsTabsTabs v2Tabs v3Tabs v4Tabs v5
IRON MAIDEN
Caught somewhere in time         



                                                               
G||-------------------|-------------------|-------------------|
D||--9----------------|--5----------------|--9----------------|
A||--7----------------|--3----------------|--7----------------|
E||-------------------|-------------------|-------------------|


                                                             
--------------------|-------------------|-------------------|
--5------2----------|--9----------------|--5----------------|
--3------0----------|--7----------------|--3----------------|
--------------------|-------------------|-------------------|


                                                                        
-------------------|---------------------|-----------------------------|
--7----------------|--4--------5----7----|-----------------------------|
--5----------------|--2--------3----5----|--7--7-7-7--7-7-7--7-7-7--0--|
-------------------|---------------------|-----------------------------|


                                                            
-----------------------------|-----------------------------|
-----------------------------|-----------------------------|
--3--3-3-3--3-3-3--3-3-3--5--|--7--7-7-7--7-7-7--7-7-7--0--|
-----------------------------|-----------------------------|


                                                           
----------------------------|-----------------------------|
----------------------------|-----------------------------|
--3--3-3-3-----0--0-0-0--5/-|--7--7-7-7--7-7-7--7-7-7--0--|
------------0---------------|-----------------------------|


                                                            
-----------------------------|-----------------------------|
-----------------------------|-----------------------------|
--3--3-3-3--3-3-3--3-3-3--0--|--5--5-5-5--5-5-5--5-5-5--0--|
-----------------------------|-----------------------------|


                                                              
-------------------------2-0---|-----------------------------|
-------------------0-0-0-----0-|-----------------------------|
--2--2-2-2--3-3-3--------------|--7--7-7-7--7-7-7--7-7-7--0--|
-------------------------------|-----------------------------|


                                                            
-----------------------------|-----------------------------|
-----------------------------|-----------------------------|
--3--3-3-3--3-3-3--3-3-3--5--|--7--7-7-7--7-7-7--7-7-7--0--|
-----------------------------|-----------------------------|


                                                           
----------------------------|-----------------------------|
----------------------------|-----------------------------|
--3--3-3-3-----0--0-0-0--5/-|--7--7-7-7--7-7-7--7-7-7--0--|
------------0---------------|-----------------------------|


                                                            
-----------------------------|-----------------------------|
-----------------------------|-----------------------------|
--3--3-3-3--3-3-3--3-3-3--0--|--5--5-5-5--5-5-5--5-5-5--0--|
-----------------------------|-----------------------------|


                                                           
---------------------------|------------------------------|
-----------------5----7----|------------------------------|
--2--2-2-2-2-2-2-3----5----|--7--7-7-7--7-7-7--7-7-7--7-7-|
---------------------------|------------------------------|


                                                             
-----------------------------|------------------------------|
-----------------------------|------------------------------|
--7--7-7-7--7-7-7--7-7-7--0--|--3--3-3-3--3-3-3--3-3-3--3-3-|
-----------------------------|------------------------------|


                                                          
--------------------------|------------------------------|
--------------------------|------------------------------|
--3--3-3-3--3-3-3----5----|--7--7-7-7--7-7-7--7-7-7--7-7-|
--------------------------|------------------------------|


                                                            
-----------------------------|-----------------------------|
-----------------------------|-----------------------------|
--7--7-7-7--7-7-7--7-7-7--0--|--5--5-5-5--5-5-5--5-5-5--5--|
-----------------------------|-----------------------------|


                                                             
-----------------------------|------------------------------|
-----------------------------|------------------------------|
--2--2-2-2--2-2-3--3-3-5--5--|--7--7-7-7--7-7-7--7-7-7--7-7-|
-----------------------------|------------------------------|


                                                             
-----------------------------|------------------------------|
-----------------------------|------------------------------|
--7--7-7-7--7-7-7--7-7-7--0--|--3--3-3-3--3-3-3--3-3-3--3-3-|
-----------------------------|------------------------------|


                                                          
--------------------------|------------------------------|
--------------------------|------------------------------|
--3--3-3-3--3-3-3----5----|--7--7-7-7--7-7-7--7-7-7--7-7-|
--------------------------|------------------------------|


                                                            
-----------------------------|-----------------------------|
-----------------------------|-----------------------------|
--7--7-7-7--7-7-7--7-7-7--0--|--5--5-5-5--5-5-5--5-5-5--5--|
-----------------------------|-----------------------------|


                                                               
-----------------------------||-------------------------------|
-----------------------------||*------------------------------|
--2--2-2-2--2-2-3--3-3-5--5--||*--7--7-7-7--7-7-7--7-7-7--7-7-|
-----------------------------||-------------------------------|


                                                             
-----------------------------|------------------------------|
-----------------------------|------------------------------|
--7--7-7-7--7-7-7--7-7-7--0--|--3--3-3-3--3-3-3--3-3-3--3-3-|
-----------------------------|------------------------------|


                                                          
--------------------------|------------------------------|
--------------------------|------------------------------|
--3--3-3-3--3-3-3----5----|--7--7-7-7--7-7-7--7-7-7--7-7-|
--------------------------|------------------------------|


                                                             
-----------------------------|------------------------------|
-----------------------------|------------------------------|
--7--7-7-7--7-7-7--7-7-7--0--|--3--3-3-3--3-3-3--3-3-3--3-3-|
-----------------------------|------------------------------|


                                                          
--------------------------|------------------------------|
--------------------------|--7--7-7-7--7-7-7--7-7-7--7-7-|
--3--3-3-3--3-3-3----5----|------------------------------|
--------------------------|------------------------------|


                                                              
------------------------------|------------------------------|
--7--7-7-7--7-7-9--10--9------|------------------------------|
--------------------------10--|--8--8-8-8--8-8-8--8-8-8--8-8-|
------------------------------|------------------------------|


                                                                       
---------------------------------------|------------------------------|
---------------------------------------|--7--7-7-7--7-7-7--7-7-7--7-7-|
--10--10-10-10--10-10-7--7-7-10--10-10-|------------------------------|
---------------------------------------|------------------------------|


                                                              
------------------------------|------------------------------|
--7--7-7-7--7-7-9--10--9------|------------------------------|
--------------------------10--|--8--8-8-8--8-8-8--8-8-8--8-8-|
------------------------------|------------------------------|


                                                                         
----------------------------------------||------------------------------|
---------------------------------------*||------------------------------|
--10--10-10-10--10-10-7--7-7-10--10-10-*||--7--7-7-7--7-7-7--7-7-7--7-7-|
----------------------------------------||------------------------------|


                                                             
-----------------------------|------------------------------|
-----------------------------|------------------------------|
--7--7-7-7--7-7-7--7-7-7--7--|--7--7-7-7--7-7-7--7-7-7--7-7-|
-----------------------------|------------------------------|


                                                            
-----------------------------|-----------------------------|
-----------------------------|-----------------------------|
--7--7-7-7--7-7-7--7-7-7--7--|--5--5-5-5--5-5-5--5-5-5--5--|
-----------------------------|-----------------------------|


                                                              
------------------------------|------------------------------|
------------------------------|------------------------------|
--5--5-5-5--5-5-5--5-5-5--5-5-|--7--7-7-7--7-7-7--7-7-7--7-7-|
------------------------------|------------------------------|


                                                              
-----------------------------||------------------------------|
-----------------------------||*-----------------------------|
--7--7-7-7--7-7-7--7-7-7--7--||*--3--3-3-3--3-3-3--3-3-3--3--|
-----------------------------||------------------------------|


                                                               
------------------------------||------------------------------|
-----------------------------*||*-----------------------------|
----3-3-3--3-3-3--3-3-3--3-3-*||*--0--0-0-0--0-0-0--0-0-0--0--|
------------------------------||------------------------------|


                                                               
------------------------------||------------------------------|
-----------------------------*||*-----------------------------|
----0-0-0--0-0-0--0-0-0--0-0-*||*--3--3-3-3--3-3-3--3-3-3--3--|
------------------------------||------------------------------|


                                                              
------------------------------||-----------------------------|
-----------------------------*||-----------------------------|
----3-3-3--3-3-3--3-3-3--3-3-*||--0--0-0-0--0-0-0--0-0-0--0--|
------------------------------||-----------------------------|


                                                            
-----------------------------|-----------------------------|
-----------------------------|-----------------------------|
----0-0-0--0-0-0--0-0-0--0-0-|--0--0-0-0--0-0-0--0-0-0--0--|
-----------------------------|-----------------------------|


                                                           
-----------------------------||---------------------------|
-----------------------------||*--------------------------|
----0-0-0--0-0-0--0-0-0--0-0-||*--7--7-7-7----7--7-7-7----|
-----------------------------||---------------------------|


                                                        
---------------------------|---------------------------|
---------------------------|---------------------------|
--7--7-7-7----7--7-7-7--7--|--3--3-3-3--3----3-3-3--3--|
---------------------------|---------------------------|


                                                                                
------------------------|--------------------------|---------------------------|
------------------------|--------------------------|---------------------------|
----3-3-3--3--3----5----|--7--7-7-7----7--7-7-7----|--7--7-7-7----7--7-7-7--7--|
------------------------|--------------------------|---------------------------|


                                                       
--------------------------|---------------------------|
--------------------------|---------------------------|
--3--3-3-3----3--3-3-3----|--0--0-0-0----0--0-0-0--5/-|
--------------------------|---------------------------|


                                                            
----------------------------|------------------------------|
----------------------------|------------------------------|
--7--7-7-7----7--7-7-7--7-7-|--7--7-7-7--7-7-7--7-7-7--7-7-|
----------------------------|------------------------------|


                                                                                
---------------------------|------------------------|--------------------------|
---------------------------|------------------------|--------------------------|
--3--3-3-3--3----3-3-3--3--|----3-3-3--3--3----5----|--5--5-5-5----5--5-5-5----|
---------------------------|------------------------|--------------------------|


                                                         
-----------------------------|--------------------------|
-----------------------------|--------------------------|
--5--5-5-5--5-5-5--5-5-5--5--|--2--2-2-2----2--2-2-2----|
-----------------------------|--------------------------|


                                                        
-----------------------||------------------------------|
----------------------*||*--2--2-2-2--5----2-2-2-2-2-2-|
--3----3----5----5----*||*-----------------------------|
-----------------------||------------------------------|


                                                            
--2--------------------------|-----------------------------|
-----2-2-2--5----2-2-2-2-0-0-|--2--2-2-2--5----2-2-2-2-2-2-|
-----------------------------|-----------------------------|
-----------------------------|-----------------------------|


                                                             
--2--2-2-2--2--2--0---------||------------------------------|
---------------------4--0--*||--0--3-3-3--2-2-2--3-3-3--2-2-|
---------------------------*||------------------------------|
----------------------------||------------------------------|


                                                           
---------------------------|------------------------------|
--2--3-3-3--2-2-2--5--5----|--0--3-3-3--2-2-2--3-3-3--2-2-|
---------------------------|------------------------------|
---------------------------|------------------------------|


                                                           
---------------------------|------------------------------|
--2--3-3-3--2-2-2--5--5----|--0--3-3-3--2-2-2--3-3-3--2-2-|
---------------------------|------------------------------|
---------------------------|------------------------------|


                                                           
---------------------------|------------------------------|
--2--3-3-3--2-2-2--5--5----|--0--3-3-3--2-2-2--3-3-3--2-2-|
---------------------------|------------------------------|
---------------------------|------------------------------|


                                                                          
---------------------------|---------------------|-----------------------|
--2--3-3-3--2-2-2--5--5----|---------------------|-----------------------|
---------------------------|--5----8--7----------|--8--7--7--10----------|
---------------------------|---------------------|-----------------------|


                                                                             
---------------------|-----------------------|------------------------------|
---------------------|-----------------------|--0--3-3-3--2-2-2--3-3-3--2-2-|
--5----8--7----------|--8--7--7--10----------|------------------------------|
---------------------|-----------------------|------------------------------|


                                                           
---------------------------|------------------------------|
--2--3-3-3--2-2-2--5--5----|--0--3-3-3--2-2-2--3-3-3--2-2-|
---------------------------|------------------------------|
---------------------------|------------------------------|


                                                           
---------------------------|------------------------------|
--2--3-3-3--2-2-2--5--5----|--0--3-3-3--2-2-2--3-3-3--2-2-|
---------------------------|------------------------------|
---------------------------|------------------------------|


                                                           
---------------------------|------------------------------|
--2--3-3-3--2-2-2--5--5----|--0--3-3-3--2-2-2--3-3-3--2-2-|
---------------------------|------------------------------|
---------------------------|------------------------------|


                                                                          
---------------------------|---------------------|-----------------------|
--2--3-3-3--2-2-2--5--5----|---------------------|-----------------------|
---------------------------|--5----8--7----------|--8--7--7--10----------|
---------------------------|---------------------|-----------------------|


                                                                             
---------------------|-----------------------|------------------------------|
---------------------|-----------------------|--0--3-3-3--2-2-2--3-3-3--2-2-|
--5----8--7----------|--8--7--7--10----------|------------------------------|
---------------------|-----------------------|------------------------------|


                                                           
---------------------------|------------------------------|
--2--3-3-3--2-2-2--5--5----|--0--3-3-3--2-2-2--3-3-3--2-2-|
---------------------------|------------------------------|
---------------------------|------------------------------|


                                                       
---------------------------|--------------------------|
--2--3-3-3--2-2-2--5--5----|--------------------------|
---------------------------|--7--7-7-7----7--7-7-7----|
---------------------------|--------------------------|


                                                              
----------------------------------|--------------------------|
----------------------------------|--------------------------|
--10--10-10-10----10--10-10-10----|--3--3-3-3----3--3-3-3----|
----------------------------------|--------------------------|


                                                    
------------------------|--------------------------|
------------------------|--------------------------|
--3--3-3-3----3----5----|--7--7-7-7----7--7-7-7----|
------------------------|--------------------------|


                                                              
----------------------------------|--------------------------|
----------------------------------|--------------------------|
--10--10-10-10----10--10-10-10----|--5--5-5-5----5--5-5-5----|
----------------------------------|--------------------------|


                                                      
--------------------------|--------------------------|
--------------------------|--------------------------|
--5--5-5-5----5--5-5-5----|--7--7-7-7----7--7-7-7----|
--------------------------|--------------------------|


                                                              
----------------------------------|--------------------------|
----------------------------------|--------------------------|
--10--10-10-10----10--10-10-10----|--3--3-3-3----3--3-3-3----|
----------------------------------|--------------------------|


                                                    
------------------------|--------------------------|
------------------------|--------------------------|
--3--3-3-3----3----5----|--7--7-7-7----7--7-7-7----|
------------------------|--------------------------|


                                                              
----------------------------------|--------------------------|
----------------------------------|--------------------------|
--10--10-10-10----10--10-10-10----|--5--5-5-5----5--5-5-5----|
----------------------------------|--------------------------|


                                                      
--------------------------|--------------------------|
--------------------------|--------------------------|
--5--5-5-5----5--5-5-5----|--7--7-7-7----7--7-7-7----|
--------------------------|--------------------------|


                                                      
--------------------------|--------------------------|
--5--5-5-5----5--5-5-5----|--4--4-4-4----4--4-4-4----|
--------------------------|--------------------------|
--------------------------|--------------------------|


                                                      
--------------------------|--------------------------|
--7--7-7-7----7--7-7-7----|--------------------------|
--------------------------|--7--7-7-7----7--7-7-7----|
--------------------------|--------------------------|


                                                      
--------------------------|--------------------------|
--5--5-5-5----5--5-5-5----|--4--4-4-4----4--4-4-4----|
--------------------------|--------------------------|
--------------------------|--------------------------|


                                                          
--------------------------|------------------------------|
--7--7-7-7----7--7-7-7----|--9--9-9-9--9-9-9--9-9-9--9-9-|
--------------------------|------------------------------|
--------------------------|------------------------------|


                                                            
-----------------------------|-----------------------------|
--9--9-9-9--9-9-9--10--7--9--|----9-9-9--9-9-9--9-9-9--9-9-|
-----------------------------|-----------------------------|
-----------------------------|-----------------------------|


                                                              
-------------------10--9------|------------------------------|
--9--9-9-9--9-9-9---------10--|--9--9-9-9--9-9-9--9-9-9--9-9-|
------------------------------|------------------------------|
------------------------------|------------------------------|


                                                            
-----------------------------|-----------------------------|
--9--9-9-9--9-9-9--10--7--9--|----9-9-9--9-9-9--9-9-9--9-9-|
-----------------------------|-----------------------------|
-----------------------------|-----------------------------|


                                                                            
-----10--9-------------------|--7-----------|------------------------------|
--9---------10--9--10--9--7--|-----9--------|------------------------------|
-----------------------------|--------10----|--7--7-7-7--7-7-7--7-7-7--7-7-|
-----------------------------|--------------|------------------------------|


                                                             
-----------------------------|------------------------------|
-----------------------------|------------------------------|
--7--7-7-7--7-7-7--7-7-7--7--|--3--3-3-3--3-3-3--3-3-3--3-3-|
-----------------------------|------------------------------|


                                                          
--------------------------|------------------------------|
--------------------------|------------------------------|
--3--3-3-3--3-3-3----5----|--7--7-7-7--7-7-7--7-7-7--7-7-|
--------------------------|------------------------------|


                                                            
-----------------------------|-----------------------------|
-----------------------------|-----------------------------|
--7--7-7-7--7-7-7--7-7-7--7--|--5--5-5-5--5-5-5--5-5-5--5--|
-----------------------------|-----------------------------|


                                                             
-----------------------------|------------------------------|
-----------------------------|------------------------------|
--2--2-2-2--2-2-3--3-3-5--5--|--7--7-7-7--7-7-7--7-7-7--7-7-|
-----------------------------|------------------------------|


                                                             
-----------------------------|------------------------------|
-----------------------------|------------------------------|
--7--7-7-7--7-7-7--7-7-7--7--|--3--3-3-3--3-3-3--3-3-3--3-3-|
-----------------------------|------------------------------|


                                                          
--------------------------|------------------------------|
--------------------------|------------------------------|
--3--3-3-3--3-3-3----5----|--7--7-7-7--7-7-7--7-7-7--7-7-|
--------------------------|------------------------------|


                                                            
-----------------------------|-----------------------------|
-----------------------------|-----------------------------|
--7--7-7-7--7-7-7--7-7-7--7--|--5--5-5-5--5-5-5--5-5-5--5--|
-----------------------------|-----------------------------|


                                                             
-----------------------------|------------------------------|
-----------------------------|------------------------------|
--2--2-2-2--2-2-3--3-3-5--5--|--7--7-7-7--7-7-7--7-7-7--7-7-|
-----------------------------|------------------------------|


                                                             
-----------------------------|------------------------------|
-----------------------------|------------------------------|
--7--7-7-7--7-7-7--7-7-7--0--|--3--3-3-3--3-3-3--3-3-3--3-3-|
-----------------------------|------------------------------|


                                                          
--------------------------|------------------------------|
--------------------------|------------------------------|
--3--3-3-3--3-3-3----5----|--7--7-7-7--7-7-7--7-7-7--7-7-|
--------------------------|------------------------------|


                                                             
-----------------------------|------------------------------|
-----------------------------|------------------------------|
--7--7-7-7--7-7-7--7-7-7--0--|--3--3-3-3--3-3-3--3-3-3--3-3-|
-----------------------------|------------------------------|


                                                          
--------------------------|------------------------------|
--------------------------|--7--7-7-7--7-7-7--7-7-7--7-7-|
--3--3-3-3--3-3-3----5----|------------------------------|
--------------------------|------------------------------|


                                                              
------------------------------|------------------------------|
--7--7-7-7--7-7-9--10--9------|------------------------------|
--------------------------10--|--8--8-8-8--8-8-8--8-8-8--8-8-|
------------------------------|------------------------------|


                                                                       
---------------------------------------|------------------------------|
---------------------------------------|--7--7-7-7--7-7-7--7-7-7--7-7-|
--10--10-10-10--10-10-7--7-7-10--10-10-|------------------------------|
---------------------------------------|------------------------------|


                                                              
------------------------------|------------------------------|
--7--7-7-7--7-7-9--10--9------|------------------------------|
--------------------------10--|--8--8-8-8--8-8-8--8-8-8--8-8-|
------------------------------|------------------------------|


                                                                       
---------------------------------------|------------------------------|
---------------------------------------|------------------------------|
--10--10-10-10--10-10-7--7-7-10--10-10-|--7--7-7-7--7-7-7--7-7-7--7-7-|
---------------------------------------|------------------------------|


                                                             
-----------------------------|------------------------------|
-----------------------------|------------------------------|
--7--7-7-7--7-7-7--7-7-7--7--|--7--7-7-7--7-7-7--7-7-7--7-7-|
-----------------------------|------------------------------|


                                                            
-----------------------------|-----------------------------|
-----------------------------|-----------------------------|
--7--7-7-7--7-7-7--7-7-7--7--|--5--5-5-5--5-5-5--5-5-5--5--|
-----------------------------|-----------------------------|


                                                              
------------------------------|------------------------------|
------------------------------|------------------------------|
--5--5-5-5--5-5-5--5-5-5--5-5-|--7--7-7-7--7-7-7--7-7-7--7-7-|
------------------------------|------------------------------|


                                                              
-----------------------------||------------------------------|
-----------------------------||*-----------------------------|
--7--7-7-7--7-7-7--7-7-7--7--||*--3--3-3-3--3-3-3--3-3-3--3--|
-----------------------------||------------------------------|


                                                               
------------------------------||------------------------------|
-----------------------------*||*-----------------------------|
----3-3-3--3-3-3--3-3-3--3-3-*||*--0--0-0-0--0-0-0--0-0-0--0--|
------------------------------||------------------------------|


                                                               
------------------------------||------------------------------|
-----------------------------*||*-----------------------------|
----0-0-0--0-0-0--0-0-0--0-0-*||*--3--3-3-3--3-3-3--3-3-3--3--|
------------------------------||------------------------------|


                                                              
------------------------------||-----------------------------|
-----------------------------*||-----------------------------|
----3-3-3--3-3-3--3-3-3--3-3-*||--0--0-0-0--0-0-0--0-0-0--0--|
------------------------------||-----------------------------|


                                                            
-----------------------------|-----------------------------|
-----------------------------|-----------------------------|
----0-0-0--0-0-0--0-0-0--0-0-|--0--0-0-0--0-0-0--0-0-0--0--|
-----------------------------|-----------------------------|


                                                           
-----------------------------||---------------------------|
-----------------------------||*--------------------------|
----0-0-0--0-0-0--0-0-0--0-0-||*--7--7-7-7----7--7-7-7----|
-----------------------------||---------------------------|


                                                        
---------------------------|---------------------------|
---------------------------|---------------------------|
--7--7-7-7----7--7-7-7--7--|--3--3-3-3--3----3-3-3--3--|
---------------------------|---------------------------|


                                                                                
------------------------|--------------------------|---------------------------|
------------------------|--------------------------|---------------------------|
----3-3-3--3--3----5----|--7--7-7-7----7--7-7-7----|--7--7-7-7----7--7-7-7--7--|
------------------------|--------------------------|---------------------------|


                                                       
--------------------------|---------------------------|
--------------------------|---------------------------|
--3--3-3-3----3--3-3-3----|--0--0-0-0----0--0-0-0--5/-|
--------------------------|---------------------------|


                                                            
----------------------------|------------------------------|
----------------------------|------------------------------|
--7--7-7-7----7--7-7-7--7-7-|--7--7-7-7--7-7-7--7-7-7--7-7-|
----------------------------|------------------------------|


                                                                                
---------------------------|------------------------|--------------------------|
---------------------------|------------------------|--------------------------|
--3--3-3-3--3----3-3-3--3--|----3-3-3--3--3----5----|--5--5-5-5----5--5-5-5----|
---------------------------|------------------------|--------------------------|


                                                         
-----------------------------|--------------------------|
-----------------------------|--------------------------|
--5--5-5-5--5-5-5--5-5-5--5--|--2--2-2-2----2--2-2-2----|
-----------------------------|--------------------------|


                                                        
-----------------------||------------------------------|
----------------------*||--9--9-9-9--9-9-9--9-9-9--9-9-|
--3----3----5----5----*||------------------------------|
-----------------------||------------------------------|


                                                            
-----------------------------|-----------------------------|
--9--9-9-9--9-9-9--10--7--9--|----9-9-9--9-9-9--9-9-9--9-9-|
-----------------------------|-----------------------------|
-----------------------------|-----------------------------|


                                                              
-------------------10--9------|------------------------------|
--9--9-9-9--9-9-9---------10--|--9--9-9-9--9-9-9--9-9-9--9-9-|
------------------------------|------------------------------|
------------------------------|------------------------------|


                                                            
-----------------------------|-----------------------------|
--9--9-9-9--9-9-9--10--7--9--|----9-9-9--9-9-9--9-9-9--9-9-|
-----------------------------|-----------------------------|
-----------------------------|-----------------------------|


                                                                          
-----10--9-------------------|--7--------------------|-------------------|
--9---------10--9--10--9--7--|-----9-----------------|-------------------|
-----------------------------|--------10----7--------|--7----------------|
-----------------------------|--------------0--------|--0----------------|


                                                                            
------------------|------------------|------------------|------------------|
------------------|------------------|------------------|------------------|
------------------|------------------|------------------|------------------|
------------------|------------------|------------------|------------------|


                                
-------------------|
-------------------|
--7----------------|
--0----------------|





Comments


Popular Iron Maiden tabs & chords
Apparition Bass Tabs
Lightning Strikes Twice Bass Tabs
My Generation 1 Bass Tabs
Charlotte The Harlot Tabs
Holy Smoke (Solo) Tabs
Ides Of March 1 Tabs
Sun And Steel 2 Tabs
The Wicker Man Tabs
To Tame A Land Tabs
Where Eagles Dare 1 Tabs


Song lyrics



↑ Back to top | Tablatures and chords are parodies/interpretations of the original songs. You may use it for private study, scholarship, research or language learning purposes only
© 2014 AZChords.com Contact us | Privacy policy | DMCA | Add/correct tabs | Request tabs | Top 50 tabs