» » »

Blood Brothers Tabs (ver.9)

Artists:  A B C D E F G H I J K L M N O P Q R S T U V W X Y Z # 

Blood Brothers Tabs (ver.9)

Iron Maiden
Rating:
0/5 (0 votes)

Hard to play? Try these video lessons and learn fast.
                -------------------------------------------------------------------------------
                             Iron maiden
-------------------------------------------------------------------------------

Tuning:Standard tuning
one of me favourite songs!! RoknRoll!!!
   INTRO
e|---------------------------------------------------------------------------|
B|---------------------------------------------------------------------------|
G|---------------------------------------------------------------------------|
D|--------------------5---5---7---7-----------------------7---7---5----------|
A|----2---2---5---5-3---3---5---5---------2---2---5---5-5---5---3------------|X4
E|--0---0---3---3--------------------3--0---0---3---3------------------------|
         This is played 3rd time round
e|---------------8-7-----7-----------------------8-7-----7-------------------|
B|--------------------10---10-8-10-8-7---------------10-----10-8-7-8---------|
G|----9---7---9-------------------------9--7--9------------------------------|
D|---------------------------------------------------------------------------|
A|---------------------------------------------------------------------------|X2
E|---------------------------------------------------------------------------|
     VERSE
e|---------------------------------------------------------------------------|
B|---------------------------------------------------------------------------|
G|---------------------------------------------------------------------------|
D|----9---9------------------5---5---------7---7-----------------------------|
A|--7---7---7-----5---5----3---3----3----5---5---5---------------------------|X4
E|--------------3---3---3----------------------------------------------------|
    Pre chorus
e|---------------------------------------------------------------------------|
B|---------------------------------------------------------------------------|
G|---------------------------------------------------------------------------|
D|----------------------5-5--5-5-5--7-7-7-7---------------------5-5--5-5-5-7-hold|X4
A|--2-2--2-2--5-5-5--5--3-3--3-3-3--5-5-5-5-2-2--2-0--5-5-5--5--3-3--3-3-3-5-|
E|--0-0--0-0--3-3-3--3----------------------0-0--0-0--3-3-3--3---------------|
   Chorus
e|---------------------------------------------------------------------------|
B|---------------------------------------------------------------------------|
G|--------5-------7-------------------------------------7--------------------|
D|-2------5---5---7-------------------------------------7--------------------|
A|-2------3---5---5--on the 4th time in plain this hit--5--twise quickly-----|X2 THen back to pre chorus
E|-0----------3--------------------------------------------------------------|
after second chorus go back to intro
and then pre chorus and chorus and then
THen back to pre chorus
after second chorus go back to intro
and then pre chorus and chorus  
intro with pre chorus backing
Solo:

e|------------------12---------------12-14-15-15-14-12-14-14------------------|
B|-12---10-12-14-15-----15fb-------------------------------------------------|
G|---------------------------------------------------------------------------|
D|---------------------------------------------------------------------------|
A|---------------------------------------------------------------------------|
E|---------------------------------------------------------------------------|


e|-12------12-------------------p---h----p--p--h-----------------------------|
B|----15--------15fb--15---13--15--13-12-13----------------------------------|
G|--------------------------------------------------14--12-------------------|
D|---------------------------------------------------------------------------|
A|---------------------------------------------------------------------------|
E|---------------------------------------------------------------------------|

e|---------------------------------------------------------------------------|
B|-15-12-15-12--------------------------------------------------h---p-h------|
G|-------------14-12-14-12--------------------------------------12-12-15-----|
D|-------------------------14-12-14-----------12---14-14fb-14fb--------------|
A|------------------------------------12---14--------------------------------|
E|---------------------------------------------------------------------------|

e|---------------------------------------------------------------------------|
B|-12-12-------------------------------------------------------12-13-12----12|
G|-------15-14-12----12-14fb-12----12-----------------11-12-14----------14---|
D|----------------14------------14-----------11-12-14------------------------|
A|-------------------------------------12-14---------------------------------|
E|---------------------------------------------------------------------------|

e|-------12-14-15-15fb-------------------------------------------------------|
B|-13-15-------------------12-10-12-13-12-10------12-10-12--13-12-10---------|
G|-----------------------9------------------12-9--------------------12-------|
D|---------------------------------------------------------------------------|X4
A|---------------------------------------------------------------------------|
E|---------------------------------------------------------------------------|

e|---------------7----7-10-7---7-----------------7-10-7----7-----------------|
B|----7-8-7-8-10---10-------10---10-8-10-10fb-10--------10---10-8-10-8-10-10fb-|
G|--9------------------------------------------------------------------------|
D|---------------------------------------------------------------------------|
A|---------------------------------------------------------------------------|
E|---------------------------------------------------------------------------|  

e|---------------------------------------------------------------------------|
b|-10-8-10-8-7-----7-8-7----7-------------7-8-7---7----------7-8-7-------7---|
G|-------------9-9--------9----9-7-9----9-------9---9-7-9--9-------9-7-9---9-|
D|-----------------------------------10--------------------------------------|X3
A|---------------------------------------------------------------------------|
E|---------------------------------------------------------------------------|

e|----------------------12-14-14-14-12----14-12------------------------------|
b|-15fb-15fb-15fb-15-fb----------------15-------17fb-17fb-17-15-14-15-14-----|
G|-----------------------------------------------------------------------15--|
D|---------------------------------------------------------------------------|
A|---------------------------------------------------------------------------|
E|---------------------------------------------------------------------------|

e|-12-14--14--14--14----12-14-13------12-------------------------------------|
b|-------------------15----------15fb----15-12---12-----------------15fb-----|
G|---------------------------------------------15---15-14-12-----12----------|
D|------------------------------------------------------------14-------------|
A|---------------------------------------------------------------------------|
E|---------------------------------------------------------------------------|

e|---------17fb-17-17--15p14-15p14-15p14----14-15-17-15p14----14-15p14-------|
b|-15hold--------------------------------15----------------15----------------|
G|---------------------------------------------------------------------------|
D|---------------------------------------------------------------------------|
A|---------------------------------------------------------------------------|
E|---------------------------------------------------------------------------|

e|----14-17fb-17-15-14p15-14----14-------------------------------------------|
b|-15------------------------15----17hold-15fb-12----------------------------|
G|------------------------------------------------15p14p12-------------------|
D|---------------------------------------------------------------------------|
A|---------------------------------------------------------------------------|
E|---------------------------------------------------------------------------|

Chorus then intro which is the outro !!
Hope u like it u maiden rockin fans!! Please Rate this tab!Up the irons

 fb = full bend
| /  slide up
| \  slide down
| h  hammer-on
| p  pull-off
| ~  vibrato
| +  harmonic
| x  Mute note
===============================================================================
            
Hard to play? Try these video lessons and learn fast. | Correct




comments powered by Disqus
↑ Back to top | Tablatures and chords are parodies/interpretations of the original songs. You may use it for private study, scholarship, research or language learning purposes only