>
 >
Blood Brothers 4

Blood Brothers 4 Guitar Tabs

Iron Maiden - Blood Brothers 4 chords, tabs, tablatures, lyrics

Guitar lessons | Add/correct | Request | Top 50 tabs Artists:  A B C D E F G H I J K L M N O P Q R S T U V W X Y Z 0-9

Blood Brothers 4 Guitar Tabs – Iron Maiden

CD, Sheet music, Poster

Do you like Blood Brothers 4? Share with your friends now
Bass TabsBass Tabs v2Drum TabsTabsTabs v2Tabs v3Tabs v4Tabs v5Tabs v6Tabs v7Tabs v8
Band:Iron Maiden
Album:Brave New World

This is from the live version of Blood Brothers in Rock In Rio, Its song 6

Intro
E---------------------------------|---------------------------------
B---------------------------------|---------------------------------
G---------------------------------|---------------------------------
D-------------------5---5----7----|-------------------7---7----5----
A----2--2----5----3---3----5---5--|----2--2----5----5---5----3---3--
E--0--0----3---3------------------|--0--0----3---3------------------
          Play This 3x                      Then Play This

E--------8-7---7--------------
B-----------10---10-8-10-8-7--
G--9-7-9----------------------
D-----------------------------
A-----------------------------
E-----------------------------
        Then Play This 4x

Verse
E-----------------
B-----------------
G----------5---7--
D--2---5---5---7--
A--2---5---3---5--
E--0---3----------
   Play This 8x

Chorus
E-----------------
B-----------------
G--9---5-------7--
D--9---5---5---7--
A--7---3---5---5--
E----------3------
    Play This 4x

Verse 4x

Chorus 4x

E--------8-7---7--------------
B-----------10---10-8-10-8-7--
G--9-7-9----------------------
D-----------------------------
A-----------------------------
E-----------------------------
    Play This 4x

E-----------------
B-----------------
G----------5---7--
D--2---5---5---7--
A--2---5---3---5--
E--0---3----------
   Then Play This 4x

E------------------
B------------------
G--9---12---5---7--
D--9---12---5---7--
A--7---10---3---5--
E------------------
    Then Play This 4x

Chorus 4x

E--------8-7---7--------------
B-----------10---10-8-10-8-7--
G--9-7-9----------------------
D-----------------------------
A-----------------------------
E-----------------------------
    Play This 4x

Then its Dave's part of the solo which I don't know but I think Adrian and Janick Play the verse under it.

E----7---7-8-7-------
B-----10-------10-8--
G--9-----------------
D--------------------
A--------------------
E--------------------
    Play this 8x

Then its the wee breakdown thingy, I think it goes like this but I'm probably wrong.
E----------------------|-------------------------
B----------------------|-------------------------
G----------------------|----------------------7--
D------------7-7--5-5--|--3-3--5-5--3-3--5-5--7--
A--2-2--5-5------------|----------------------5--
E----------------------|-------------------------
   Play This 3x             Then This 

This is the part Janick plays
E-----------7-10-7---7---------7--
B----7-8-10-------10---10-8-10----
G--9------------------------------
D---------------------------------
A---------------------------------
E---------------------------------

-----7-10-7---7----------
--10-------10---10-8-10--
-------------------------
-------------------------
-------------------------
-------------------------

-------7---------------
--8-10--10-8-10-8-7----
--------------------9--
-----------------------
-----------------------
-----------------------

-----------------------
----7-8-7---7----------
--9-------9---9-7-9----
--------------------9--
-----------------------
-----------------------

---------------------
----7-8-7---7--------
--9-------9---9-7-9--
---------------------
---------------------
---------------------

---------------------
----7-8-7-------7----
--9-------9-7-9---9--
---------------------
---------------------
---------------------
Play Janicks part 3x and on the last one play it louder.

I couldn't get Janick's last part

Chorus 8x

End on
E--------8-7---7--------------
B-----------10---10-8-10-8-7--
G--9-7-9----------------------
D-----------------------------
A-----------------------------
E-----------------------------

Thats pretty much it, please rate this.





Comments


Popular Iron Maiden tabs & chords
Brighter Than A Thousand Suns 2 Bass Tabs
Aces High 11 Tabs
Alexander The Great Tabs
Back In The Village 1 Tabs
Caught Somewhere In Time 3 Tabs
Doctor Doctor Main Riff Tabs
I've Got The Fire Tabs
Man On The Edge 1 Tabs
Tailgunner Tabs
To Tame A Land 1 Tabs


Song lyrics



↑ Back to top | Tablatures and chords are parodies/interpretations of the original songs. You may use it for private study, scholarship, research or language learning purposes only
© 2014 AZChords.com Contact us | Privacy policy | DMCA | Add/correct tabs | Request tabs | Top 50 tabs