» » »

Iron Maiden, Be Quick Or Be Dead Bass tabs (ver.1)

Artists:  A B C D E F G H I J K L M N O P Q R S T U V W X Y Z # 

Be Quick Or Be Dead Bass tabs (ver.1)

Iron Maiden Tabs
 Rating:
4/5 (4 votes)
Be Quick Or Be Dead lessons Tabs too difficult? Try these video lessons and learn fast
1
                Iron Maiden - Be Quick Or Be Dead


[Intro]
G|----------------------------------------------
D|------------------------------------3h0-1h0---
A|--------------------------------------------3-
E|-0-3-333-3333-33-333-0-3-333-333-33----------- 
                                
[Verse] ('Covered in sinners...')
G|-----------------------------------------------
D|-----------------------------------------------
A|---------------------5-6---------------1-3-6-5-
E|-1-33333-33333-33333-----1-33333-33333--------- 

[Pre-Chorus] ('You got to watch them...')                         
G|-------------------------------------------------
D|-------------------------------------------------
A|-33333-33333-11111-------33333-33333-11111-6-5-6-
E|-------------------11111-------------------------

[Chorus] ('Be Quick or be dead...')
G|-------------------------------------------------------
D|------------1-1-0--------------1-1-0-----7-5-0---5-3-0-
A|------------------3------------------3-----------------
E|-3-33-33-33---------3-33-33-33---------3-------3-------

G|-------------------------------------------------------
D|---3-1-0---1-1-0-----7-5-0---5-3-0---3-1-0---1-1-0-----
A|-----------------3---------------------------------3---
E|-3-------3---------3-------3-------3-------3-----------


[Bridge] ('See who's ruling all our lives...')
G|--------------------------------------------------------------------------
D|--------------------------------------------------------------------------
A|--------------------------------------------------------------------------
E|-11111111-33333333-11111111-333333333-11111111-33333333-11111111-333333333

G|-------------------------------------------------------
D|-------------------------------------------------------
A|-1---3---1--------1---3---1-3-5---6---8----------------
E|---1---3---1-3333---1---3------------------------------


[Guitar Solo 1]
G|---------------------------------------------------------------------------------
D|----------------------------------1-1-0------------------------------------------
A|-3-1-3-1-3-1-3-1-3-1--3-1-3-1-3-1-------3-1-3-1-3-1-3-1-3-1--3-1-3-1-3-1-3-----0-
E|---------------------------------------------------------------------------3-3---

[Guitar Solo 2]
G|---------------------------------------------------------------------------------
D|----------------------------------3-3-2------------------------------------------
A|-5-3-5-3-5-3-5-3-5-3--5-3-5-3-5-3-------5-3-5-3-5-3-5-3-5-3--5-3-5-3-5-3-5-0-0-2-
E|---------------------------------------------------------------------------------

 
Structure
==================
Intro		x4
Verse		x2
Pre-Chorus	x2
Chorus		x1
Bridge		x1
Intro		x4
Verse		x2
Pre-Chorus	x2
Chorus		x1
Guitar Solo 1	x2
Guitar Solo 2	x2
Pre-Chorus	x2
Chorus		x1
            
Submit corrections

comments powered by Disqus
↑ Back to top | Iron Maiden Bass for Be Quick Or Be Dead. Lyrics for acoustic guitar and electric guitar. 1 Tablatures and chords are parodies/interpretations of the original songs. You may use it for private study, scholarship, research or language learning purposes only