>
 >
Art Of Dave Murray

Art Of Dave Murray Guitar Tabs

Iron Maiden - Art Of Dave Murray chords, tabs, tablatures, lyrics

Guitar lessons | Add/correct | Request | Top 50 tabs Artists:  A B C D E F G H I J K L M N O P Q R S T U V W X Y Z 0-9

Art Of Dave Murray Guitar Tabs – Iron Maiden

CD, Sheet music, Poster

Do you like Art Of Dave Murray? Share with your friends now
Tabs
                              Art of dave murray                                


Dave murray
      Q.       Q.       Q        W                   H         Q        Q     
E||---------------------------|-------------------|--------------------------|
B||--17b------17b------17b----|--L----------------|--L--------17pbr----15----|
G||---------------------------|-------------------|--------------------------|
D||---------------------------|-------------------|--------------------------|
A||---------------------------|-------------------|--------------------------|
E||---------------------------|-------------------|--------------------------|


                                    |---3---|   
   W                   H.           E   E   E   
--------------------|--------------------------|
--------------------|----------------------15--|
--16----------------|--L---------------16------|
--------------------|--------------------------|
--------------------|--------------------------|
--------------------|--------------------------|


   |----3---|   |----3---|                                         
   E   E    E   E    E   E  H           Q     E    Q.      E   E   
-------------------------------------|----------------------------|
--17--15p--14--15p--14---------------|----------------------------|
------------------------16--L--------|--L-------------------------|
-------------------------------------|-------14h--16------14--16--|
-------------------------------------|----------------------------|
-------------------------------------|----------------------------|


                                           |----3----|   
   H.            E    E      H.            E    E    E   
-------------------------|------------------------------|
-------------------------|--14------------14h--15h--17--|
--14------------14h--16--|------------------------------|
-------------------------|------------------------------|
-------------------------|------------------------------|
-------------------------|------------------------------|


   H.            E    E      E   H.            E      H          H          
--14---------------------|--14--17b------------L--|--17b--------17b--------|
----------------15h--17--|------------------------|------------------------|
-------------------------|------------------------|------------------------|
-------------------------|------------------------|------------------------|
-------------------------|------------------------|------------------------|
-------------------------|------------------------|------------------------|


  W                   H.           E   E    
--L----------------|--L------------L--14h--|
-------------------|-----------------------|
-------------------|-----------------------|
-------------------|-----------------------|
-------------------|-----------------------|
-------------------|-----------------------|


   S   S   S   S  S  S   S   S   S   S  S  S   S   S   S   S  
--17p-14h-17p-14----14h-17p-14h-17p-14----14h-17p-14h-17p-14-|
-----------------17--------------------17--------------------|
-------------------------------------------------------------|
-------------------------------------------------------------|
-------------------------------------------------------------|
-------------------------------------------------------------|


   S  S   S   S   S   S  S  S   S   S   S   S  S  S   S   S   
-----14h-17p-14h-17p-14----14h-17p-14h-17p-14----14h-17p-14h-|
--17--------------------17--------------------17-------------|
-------------------------------------------------------------|
-------------------------------------------------------------|
-------------------------------------------------------------|
-------------------------------------------------------------|


   S   S  S  S   S   S   S   S  S  S   S   S   S   S  S  S   
--17p-14----14h-17p-14h-17p-14----14h-17p-14h-17p-14----14h-|
---------17--------------------17--------------------17-----|
------------------------------------------------------------|
------------------------------------------------------------|
------------------------------------------------------------|
------------------------------------------------------------|


   S   S   S   S  S  S   S   S   S   S  S  S   S   S   S   S  
--17p-14h-17p-14----14h-17p-14h-17p-14----14h-17p-14h-17p-14-|
-----------------17--------------------17--------------------|
-------------------------------------------------------------|
-------------------------------------------------------------|
-------------------------------------------------------------|
-------------------------------------------------------------|


                                          |---3---|   |----3---|   
   Q.       Q.       Q        Q     Q     E   E   E   E    E   E   
---------------------------|--------------------------------------|
--17b------17b------17b----|--L----15----17--15--14--15p--14------|
---------------------------|----------------------------------16--|
---------------------------|--------------------------------------|
---------------------------|--------------------------------------|
---------------------------|--------------------------------------|


   W                    W                    W                  
---------------------|-------------------|---------------------|
--14~----------------|--L----------------|--13~----------------|
---------------------|-------------------|---------------------|
---------------------|-------------------|---------------------|
---------------------|-------------------|---------------------|
---------------------|-------------------|---------------------|


  W                   H.            Q         H        S Q.     S  
--L----------------|-----------------------|----------------------|
--L----------------|-----------------------|--------------------0-|
-------------------|--2b------------2br----|--2--------L-L--------|
-------------------|-----------------------|----------------------|
-------------------|-----------------------|----------------------|
-------------------|-----------------------|----------------------|


  |---3---|  |---3---|  |---3---|  |---3---|   
  E   E   E  E   E   E  E   E   E  E   E   E   
----------------------------------------------|
--5p--3p--0--5p--3p--0--5p--3p--0--5p--3p--0--|
----------------------------------------------|
----------------------------------------------|
----------------------------------------------|
----------------------------------------------|


  |---3---|  |---3---|  |---3---|  |---3---|   
  E   E   E  E   E   E  E   E   E  E   E   E   
----------------------------------------------|
--5p--3p--0--5p--3p--0--5p--3p--0--5p--3p--0--|
----------------------------------------------|
----------------------------------------------|
----------------------------------------------|
----------------------------------------------|


  |---3---|  |---3---|  |---3---|  |---3---|   
  E   E   E  E   E   E  E   E   E  E   E   E   
----------------------------------------------|
--8p--5p--0--7p--5p--0--8p--5p--0--7p--5p--0--|
----------------------------------------------|
----------------------------------------------|
----------------------------------------------|
----------------------------------------------|


  |---3---|  |---3---|  |---3---|  |---3---|   
  E   E   E  E   E   E  E   E   E  E   E   E   
----------------------------------------------|
--8p--5p--0--7p--5p--0--8p--5p--0--7p--5p--0--|
----------------------------------------------|
----------------------------------------------|
----------------------------------------------|
----------------------------------------------|


  |---3---|  |---3---|  |---3---|                                              
  E   E   E  E   E   E  E   E   E  E    E     E    E  E    E   E   E   E   E   
-------------------------------------------|--------------------------12------|
--8p--5p--0--7p--5p--0--8p--5p--0----------|------------------13--15------12--|
-----------------------------------5S--12--|--9h--12--9S--14------------------|
-------------------------------------------|----------------------------------|
-------------------------------------------|----------------------------------|
-------------------------------------------|----------------------------------|


          |---3---|   |---3---|   |---3---|   
   Q      E   E   E   E   E   E   E   E   E   
---------15--12------12--15--12--12------12--|
--15b------------12------------------15------|
---------------------------------------------|
---------------------------------------------|
---------------------------------------------|
---------------------------------------------|


   S   S  S   S  S   S  E   S   S  S   S  S   S  E   
----------------------------------------------------|
--15p-12-15p-12-15p-12-12---------------------------|
---------------------------14p-12-14p-12-14p-12-12--|
----------------------------------------------------|
----------------------------------------------------|
----------------------------------------------------|


                                      push bar                
   E   E   E   E   E   E   E   E      H.            E   E     
----------------------------------|--------------------------|
----------------------------------|----------------12--17br--|
--12------------------------------|----------------12--------|
------12------14------12------12--|--------------------------|
----------14------14------14------|--14----------------------|
----------------------------------|--------------------------|


  H         Q     Q          Q       Q       Q       E.     S  
-------------------------|------------------------------------|
--L---------L----17br----|--17br----17br----17br----17br---17-|
-------------------------|------------------------------------|
-------------------------|------------------------------------|
-------------------------|------------------------------------|
-------------------------|------------------------------------|


   S   S   S   S   S   S   S   S   S   S   S   S   S   S   S   S  
-----------------------------------------------------------------|
--15h-17p-15h-17p-15h-17p-15h-17p-15h-17p-15h-17p-15h-17p-15h-17-|
-----------------------------------------------------------------|
-----------------------------------------------------------------|
-----------------------------------------------------------------|
-----------------------------------------------------------------|


   W                     E.     S  Q     E   E  E   E      
--17b----------------|------------------------------------|
---------------------|--10br---10-------10---------10pbr--|
---------------------|---9b-----9b-L-----9b--L--7---------|
---------------------|------------------------------------|
---------------------|------------------------------------|
---------------------|------------------------------------|


                                         |---3---|                      
  H.            S S   S S     S  S  S S  E    E  E  S   S  S S   E.  S  
------------------------7-|--10p-7-------------------------------------|
--L------------10-7h-10---|--------10---10br--L--L--7h-10p-7-----------|
--------------------------|----------------------------------9br-L---7-|
--------------------------|--------------------------------------------|
--------------------------|--------------------------------------------|
--------------------------|--------------------------------------------|


  H.           E  E     S S S S S S S S S S S S  S  S  S  S  
---------------------|--------------------------------------|
---------------------|--------------------------------------|
--9------------9--7--|--6-6-6-6-7-7-7-7-9-9-9-9-11-11-11-11-|
---------------------|--------------------------------------|
---------------------|--------------------------------------|
---------------------|--------------------------------------|


   S  S  S  S  S  S  S  S  S  S  S  S  S  S  S  S  
--------------------------------------------------|
--10-10-10-10-12-12-12-12-14-14-14-14-15-15-15-15-|
--------------------------------------------------|
--------------------------------------------------|
--------------------------------------------------|
--------------------------------------------------|


                       |---3---|                           
   H.              E   S   S   S     H.            E   E   
---------------------------------|------------------------|
--17pbr------------L--15h-17p-15-|--14------------14--15--|
---------------------------------|------------------------|
---------------------------------|------------------------|
---------------------------------|------------------------|
---------------------------------|------------------------|


                   |---3---|                                            
   E   E   E   E   S   S   S  E   E   E      E   E   E   E   Q    Q     
--14--15--17--15--14h-15p-14-----14------|-----------------------------|
-----------------------------17------17--|--15--14--15--14-------------|
-----------------------------------------|------------------16----L----|
-----------------------------------------|-----------------------------|
-----------------------------------------|-----------------------------|
-----------------------------------------|-----------------------------|


                               |---3---|                   
   S  S   S   S  S   S   S  S  S   S   S  S   S S   S  E   
----------------------------------------------------------|
-----10h-12p-10-14p-12p-10----10h-12p-10------------------|
--12-----------------------12------------12p-11-9h-11p-9--|
----------------------------------------------------------|
----------------------------------------------------------|
----------------------------------------------------------|


  S  S  E  E  S  S E  E  E   E     E  E  E   E   E   E  E   E   
--------------------------------|-----------------------9--10--|
--------------------------------|---------------10--12---------|
--7h-9p-7--6--7p-6--------------|-----7--9--11-----------------|
-------------------9--9--9p--7--|--9---------------------------|
--------------------------------|------------------------------|
--------------------------------|------------------------------|


          |---3--|                                        
   E   E  S   S  S  E  Q    E  E      H         H         
--12--10--9h-10p-9-----9----L-----|--12b--------L--------|
-------------------12-------------|----------------------|
----------------------------------|----------------------|
----------------------------------|----------------------|
----------------------------------|----------------------|
----------------------------------|----------------------|


  E  E  E  E  Q.      E     Q     E   E   E   E   E   E   
-------------------------|-------------------------------|
--L----------------------|-------------------------------|
-----6--5------------14--|--L----14--14--14--14--14--14--|
-----------8--6----------|-------------------------------|
-------------------------|-------------------------------|
-------------------------|-------------------------------|


                           |----3----|   
   E   E   E   E   E   E   E    E    E   
----------------------------------------|
----------------------------------------|
--14--14--14--14--14--14--16h--17p--16--|
----------------------------------------|
----------------------------------------|
----------------------------------------|


   |----3----|   |----3----|   |----3----|   |----3----|   
   E    E    E   E    E    E   E    E    E   E    E    E   
----------------------------------------------------------|
----------------------------------------------------------|
--14h--16p--15--12h--14p--12--11h--12p--11--11h--12p--11--|
----------------------------------------------------------|
----------------------------------------------------------|
----------------------------------------------------------|


                  |----3----|   
   H.             E    E    E   
-------------------------------|
-------------------------------|
-------------------------------|
--14b------------12h--14p--12--|
-------------------------------|
-------------------------------|


   |----3----|   |---3---|      |---3---|      |---3---|      
   E    E    E   S   S   S  E   S   S   S  E   S   S   S  E   
-------------------------------------------------------------|
-------------------------------------------------------------|
--11h--12h--14--11h-12p-11-----11h-12p-11-----11h-12p-11-----|
---------------------------14-------------14-------------14--|
-------------------------------------------------------------|
-------------------------------------------------------------|


           |---3---|   |---3---|               
   E   E   E   E   E   E   E   E   S  S  S  S  
----------------------12--13--12-----12-13-12-|
--------------12--13--------------15----------|
--11--12--14----------------------------------|
----------------------------------------------|
----------------------------------------------|
----------------------------------------------|


   |---3---|   |---3---|   |---3---|   |---3---|   
   E   E   E   E   E   E   E   E   E   E   E   E   
--15--13--12------12--13--15--13--12------12--13--|
--------------15----------------------15----------|
--------------------------------------------------|
--------------------------------------------------|
--------------------------------------------------|
--------------------------------------------------|


                 |---3---|                                         
   H         E   E   E   E   E     E.   S  E.   S  E.   S  E.   S  
--15b--------L--12--15--12--15--|--L---15-15---15-15---15-15---15-|
--------------------------------|---------------------------------|
--------------------------------|---------------------------------|
--------------------------------|---------------------------------|
--------------------------------|---------------------------------|
--------------------------------|---------------------------------|


                                                                 |---3---|   
   E.   S  E.   E.   S  S  S  S  E     E   Q     E   S  S  S  S  E   E   E   
--15---15-15---15---15--L-17-15-15--|--L--15----17--15-12-15-12-17--15--12--|
------------------------------------|---------------------------------------|
------------------------------------|---------------------------------------|
------------------------------------|---------------------------------------|
------------------------------------|---------------------------------------|
------------------------------------|---------------------------------------|


   H         E   S  E   S  S  S  
--15b--------L--15-17--17-15-17-|
--------------------------------|
--------------------------------|
--------------------------------|
--------------------------------|
--------------------------------|


                         |----3----|   |----3---|   
  S  S   S   S   E   E   E    E    E   E   E    E   
--L-17p-15h-17p-15--17--15p--12h--15------12h--15--|
--------------------------------------15-----------|
---------------------------------------------------|
---------------------------------------------------|
---------------------------------------------------|
---------------------------------------------------|


   |---3---|      |---3---|   |---3---|      |---3---|   
   S   S   S  E   E   E   E   S   S   S  E   E   E   E   
--12h-15p-12-----12-------------------------------------|
-------------15------15--13--13h-15p-13-12--13--12------|
----------------------------------------------------14--|
--------------------------------------------------------|
--------------------------------------------------------|
--------------------------------------------------------|


   |---3---|   |---3---|   |---3---|   |---3---|                         
   E   E   E   E   E   E   E   E   E   E   E   E      W                  
--------------------------------------12--13--15--|--15b----------------|
--13----------12----------12--13--15--------------|---------------------|
------15--14------14--12--------------------------|---------------------|
--------------------------------------------------|---------------------|
--------------------------------------------------|---------------------|
--------------------------------------------------|---------------------|


   W                   
--15b----------------||
---------------------||
---------------------||
---------------------||
---------------------||
---------------------||




Duration Legend
---------------
W - whole
H - half
Q - quarter
E - 8th
S - 16th
T - 32nd
X - 64th
. - note dotted
|-n-|  - n-tuplets


Tablature Legend
----------------
L - tied note
x - dead note
g - grace note
(n) - ghost note
> - accentuded note
NH - natural harmonic
AH - artificial harmonic
TH - tapped harmonic
SH - semi harmonic
PH - pitch harmonic
h - hammer on
p - pull off
b - bend
br - bendRelease
pb - preBend
pbr - preBendRelease
brb - bendReleaseBend
\n/ - tremolo bar dip
\n - tremolo bar dive
-/n - tremolo bar Release up
/n\ - tremolo bar inverted dip
/n - tremolo bar return
-\n - tremolo bar Release down
S - shift slide
s - legato slide
/ -  slide into from below or out of upwards
\ -  slide into from above or out of downwards
~ - vibrato
W - wide vibrato
tr - trill
TP - tremolo picking
T - tapping
S - slap
P - pop
< - fade in
^ - brush up
v - brush down





Comments


Popular Iron Maiden tabs & chords
Another Life Bass Tabs
No Prayer For The Dying Bass Tabs
The Number Of The Beast 1 Bass Tabs
Brave New World Chords
22, Acacia Avenue 1 Tabs
Blood Brothers 6 Tabs
Dance Of Death 5 Tabs
Fear Of The Dark 2 Tabs
When Two Worlds Collide 1 Tabs
Xfactor Tabs


Song lyrics



↑ Back to top | Tablatures and chords are parodies/interpretations of the original songs. You may use it for private study, scholarship, research or language learning purposes only
© 2014 AZChords.com Contact us | Privacy policy | DMCA | Add/correct tabs | Request tabs | Top 50 tabs