» » »

Iron Maiden, Another Life Bass tabs (ver.2)

Artists:  A B C D E F G H I J K L M N O P Q R S T U V W X Y Z # 

Another Life Bass tabs (ver.2)

Iron Maiden Tabs
 Rating:
4/5 (4 votes)
Another Life lessons Tabs too difficult? Try these video lessons and learn fast
                
This was pretty difficult song,so some riffs and interlude are not 100% 
correct.If you know how those (or if you find errors) riffs goes

Another life (Harris)

Intro
-first-only-drums-|----------------------------------------------9--------
-and-guitar-------|-7-7-7-7-7-7-7-7-7-7-7-7-7-7-7-7-7-7-7-7--7-9---7-5-5--
------------------|-------------------------------------------------------
------------------|-------------------------------------------------------

---------------------------------------9--------------------9-7---------
-5-5-5-5-5-5-5-5-7-7-7-7-7-7-7-7-7-7-9---9-7-7-7-7-7-7--7-9-----9-7-----
--------------------------------------------------------------------9---
------------------------------------------------------------------------

---------------------------
-5-5-5-5-5-5-5-5-5-5-5-5---
---------------------------
---------------------------

Verse 2x (all verses are same)
--------------------------------------9-7------------------------------
-7-7-7-7-7-7-7-7-7-7-7-7-7-7-7-7--7-9-----9-7----5-5-5-5-5-5-5-5-5-5---
----------------------------------------------9------------------------
-----------------------------------------------------------------------
                                    1.           2.
-----------------------------------|-----9-----|------------|
-7-7-7-7-7-7-7-7-7-7-7-7-7-7-7-7-7-|-7-9---9-7-|-7-7-7-7----|
-----------------------------------|-----------|------------|
-----------------------------------|-----------|------------|

Bridge
------------------------------|-----------------------5~---
-8-8-8-8-8-8-8-8-8-8-77-5-7--.|-8-7-5-7---8-7-5-3-5-7------
-----------------------------.|----------------------------
------------------------------|----------------------------
         3 times

This comes after bridge
-------------------------------------------------9-----
-7-7-7-7-7-7-7-7-7-7-7-7-7-7-7-7-7-7-7-7-7-7-7-9---9---
-------------------------------------------------------
-------------------------------------------------------

Then comes again verse and bridge

Interlude (guitar plays firs alone then enters drums and bass)
--------------------53------------86------------75---5h777-5h777-5h777---
---------------3-55----535----6-88---868---5-77---757--------------------
-3~--6~--5~--33------------66------------55------------------------------
-------------------------------------------------------------------------

--------53----------86------------75----------
---3-55---535---6-88---868---5-77----7-5-6~---
-33-----------66-----------55-----------------
----------------------------------------------

Then comes again intro and verse

Ending
------------------------------|-----------------------5-55555--------------
-8-8-8-8-8-8-8-8-8-8-77-5-7--.|-8-7-5-7---8-7-5-3-5-7--------(free-time)---
-----------------------------.|--------------------------------------------
------------------------------|--------------------------------------------
       3 times

Last note
-----
-7\--
-0---
-----
            
Submit corrections

comments powered by Disqus
↑ Back to top | Iron Maiden Bass for Another Life. Lyrics for acoustic guitar and electric guitar. Tablatures and chords are parodies/interpretations of the original songs. You may use it for private study, scholarship, research or language learning purposes only