>
 >
Age Of Innocence

Age Of Innocence Guitar Tabs

Iron Maiden - Age Of Innocence chords, tabs, tablatures, lyrics

Guitar lessons | Add/correct | Request | Top 50 tabs Artists:  A B C D E F G H I J K L M N O P Q R S T U V W X Y Z 0-9

Age Of Innocence Guitar Tabs – Iron Maiden

CD, Sheet music, Poster

Do you like Age Of Innocence? Share with your friends now
Bass TabsBass Tabs v2TabsTabs v2
[Riff 1] 1x

[Riff 1] 2x with solo:
e|-------------------------------------------------------------------------------|
B|---------12--8--10-----8--10--10-----10h12p10--8---7---8----8h10p8--7---8------|
G|--/9------------------------------------------------------------------------9--|
D|-------------------------------------------------------------------------------|
A|-------------------------------------------------------------------------------|
E|-------------------------------------------------------------------------------|

e|----------------------------------------------------------------------------------|
B|---12---8---10h12p10--8---10----8---10---10h12p10--8--10-----10h12p10--8--7--8~\--|
G|----------------------------------------------------------------------------------|
D|----------------------------------------------------------------------------------|
A|----------------------------------------------------------------------------------|
E|----------------------------------------------------------------------------------|


[Riff 2] 3x with lyrics:
I can't be compromising in my thoughts no more
I can't prevent the times my anger fills my heart
I can't be sympathizing with a new lost cause

[Riff 3] 1x with lyrics:
I feel I've lost my patience with the world and all

[Riff 4] 2x

[Riff 4] 3x with lyrics:
And all the politicians and their hollow promises
And all the lies, deceit and

[Riff 5] 1x with lyrics:
shame that goes with it

[Riff 4] 3x with lyrics:
The working man pays everything for their mistakes
And with his life too if there

[Riff 5] 1x with lyrics:
was to be a war

[Riff 6] 1x

[Riff 7] 7x with lyrics
So we can only get one chance can we take it
And we only got one life can't exchange it
Can we hold on to what we have don't replace it
The age of innocence is

[Riff 8] 1x with lyrics:
fading.......like an

[Riff 9] 1x with lyrics:
old dream

[Riff 4] 1x

[Riff 4] 3x with lyrics:
A life of petty crime gets punished with a holiday
The victims' mind are scarred for

[Riff 5] 1x with lyrics:
life most everyday

[Riff 4] 3x with lyrics:
Assailants know just how much further that can go
They know the laws are soft

[Riff 5] 1x with lyrics:
conviction chances low

[Riff 6] 1x

[Riff 7] 7x with lyrics
So we can only get one chance can we take it
And we only got one life can't exchange it
Can we hold on to what we have don't replace it
The age of innocence is

[Riff 8] 1x with lyrics:
fading.......like an

[Riff 9] 1x with lyrics:
old dream


During solo:
[Riff 4] 2x
[Riff 10] 1x
[Riff 4] 1x
[Riff 10] 1x
[Riff 4] 1x
[Riff 10] 1x
[Riff 4] 1x
[Riff 10] 1x


[Solo]:
e|---------15r14------12------12-------12---------------12---14h15p14p12------12h14p12--|
B|------------------------15---------------15-------13--------------------15------------|
G|----------------------------------------------14--------------------------------------|
D|--------------------------------------------------------------------------------------|
A|--------------------------------------------------------------------------------------|
E|--~--------------------------------------------------------------------------------|

e|------12h14p12--14h15p14h15p14h15--12h14p12h14p12h14---12---14---14h15p14--15p14h15p14--|
B|--15------------------------------------------------------------------------------------|
G|----------------------------------------------------------------------------------------|
D|----------------------------------------------------------------------------------------|
A|----------------------------------------------------------------------------------------|
E|----------------------------------------------------------------------------------------|

e|12h14p12--12p10h12p8h10p8---8--7--7-------------------------------------------------------|
B|-------------------------------------10-----8~------------7~--------8~-----------|
G|-------------------------------------------------------9~-------------7~-----------9~-7-9~|
D|------------------------------------------------------------------------------------------|
A|------------------------------------------------------------------------------------------|
E|------------------------------------------------------------------------------------------|

e|------------------------------------------------------------------------------------|
B|--17----------17----------17----------17----------17h20p17--------17h19---17h19h20--|
G|------19b20-------19b20-------19b20-------19b20--------------19---------------------|
D|------------------------------------------------------------------------------------|
A|------------------------------------------------------------------------------------|
E|------------------------------------------------------------------------------------|

e|------------------------------20---20~----19h20p19---17h19~---17h19h20p19h20p19h20--|
B|--19--19h20p19---17h19~-------------------------------------------------------------|
G|------------------------------------------------------------------------------------|
D|------------------------------------------------------------------------------------|
A|------------------------------------------------------------------------------------|
E|------------------------------------------------------------------------------------|

e|--17h19h20p19h20p19h20---17h19p17h19---15h17p15h17---14h15~~------12p0--0--0--0--0--|
B|------------------------------------------------------------------------------------|
G|------------------------------------------------------------------------------------|
D|------------------------------------------------------------------------------------|
A|------------------------------------------------------------------------------------|
E|------------------------------------------------------------------------------------|

e|--10p0--0--8p0--0--0--0--0--7p0--0--8p0--0--10p0--0--8p0--0--0--0--0--7p0--0--5p0---|
B|------------------------------------------------------------------------------------|
G|------------------------------------------------------------------------------------|
D|------------------------------------------------------------------------------------|
A|------------------------------------------------------------------------------------|
E|------------------------------------------------------------------------------------|

e|--0--0--0--0--3p0--0--2p0--0--3p0--0--------12--14---12h14p12------12---------------|
B|---------------------------------------------------------------15-------15--12--15--|
G|------------------------------------------------------------------------------------|
D|------------------------------------------------------------------------------------|
A|------------------------------------------------------------------------------------|
E|------------------------------------------------------------------------------------|

e|--12-----12h14p12-------12h14p12----------------------------------------------------|
B|-----15------------15-------------15--12------12------------------------------------|
G|------------------------------------------14------12------14b16r14~---12h14~--------|
D|------------------------------------------------------14----------------------------|
A|------------------------------------------------------------------------------------|
E|------------------------------------------------------------------------------------|

e|------------------------------------------------------------------------------------|
B|--17---------17--17---------17--17--------17--17---------17--17---------------------|
G|------19b20----------19b20---------19b20----------19b20----------19b20~-------------|
D|------------------------------------------------------------------------------------|
A|------------------------------------------------------------------------------------|
E|------------------------------------------------------------------------------------|

e|---------------------------------------------|
B|------17h20p17-------17h20p17--------20b22~--|
G|--19-------------19-------------19-----------|
D|---------------------------------------------|
A|---------------------------------------------|
E|---------------------------------------------|



[Harmony]: 4x
e|--------------------------------------------------------------|
B|--------------------------------------------------------------|
G|----------------------4---------------------------------------|
D|--------4---5---7----------5-----7-----5---4---5------4-------|
A|--7--------------------------------------------------------5--|
E|--------------------------------------------------------------|
 |
e|--------------------------------------------------------------|
B|---------------10-----12--------10----------------------------|
G|--9----11--12--------------12---------12---11--12-----11---7--|
D|--------------------------------------------------------------|
A|--------------------------------------------------------------|
E|--------------------------------------------------------------|
 |
e|----------------8-----10---------8----------------------------|
B|--8----10--12--------------12---------12---10--12-----10---7--|
G|--------------------------------------------------------------|
D|--------------------------------------------------------------|
A|--------------------------------------------------------------|
E|--------------------------------------------------------------|


[Riff 11] 4x with lyrics:
You can't protect yourselves even in your own home
For fear of vigilante cries the victims wipe their eyes

[Riff 12] 2x with lyrics:
So now the criminal they launch right in our face

[Riff 11] 2x with lyrics:
Judical system lets them do it, a disgrace

[Riff 13] 2x with lyrics:
Despondent public worries where it will all end
We can't protect ourselces our kids from the crime trend

[Riff 4] 3x with lyrics:
We cannot even warn each other of evil in our midst
They have more rights than us, you

[Riff 5] 1x with lyrics:
cannot call that just

[Riff 6] 1x

[Riff 7] 7x with lyrics
So we can only get one chance can we take it
And we only got one life can't exchange it
Can we hold on to what we have don't replace it
The age of innocence is

[Riff 8] 1x with lyrics:
fading.......like an

[Riff 9] 1x with lyrics:
old dream


[Riff 4] 2x with solo:
e|--12-----12---------14-----14---------15-----15---------17-----17-----|
B|--15b17--15b17------17b19--17b19------18b20--18b20------20b22--20b22--|
G|----------------------------------------------------------------------|
D|----------------------------------------------------------------------|
A|----------------------------------------------------------------------|
E|----------------------------------------------------------------------|


[Riff 1] 2x with solo:
e|----------------------------------------------------------------------------------------|
B|-------12--8--10h12p10--8--10-----8--10--10-----10h12p10--8---7---8-----8h10p8--7---8---|
G|/9-------------------------------------------------------------------------------------9|
D|----------------------------------------------------------------------------------------|
A|----------------------------------------------------------------------------------------|
E|----------------------------------------------------------------------------------------|

e|----------------------------------------------------------------------------------|
B|---12---8---10h12p10--8---10----8---10---10h12p10--8--10-----10h12p10--8--7--8~\--|
G|----------------------------------------------------------------------------------|
D|----------------------------------------------------------------------------------|
A|----------------------------------------------------------------------------------|
E|----------------------------------------------------------------------------------|


[Outro]
e|-------------------------------------------------------------------------|
B|-------------------------------------------------------------------------|
G|------9---9---9---------5---5---5---------6---6---6---------5---5---5----|
D|----9---9---9---9-----5---5---5---5-----7---7---7---7-----5---5---5---5--|
A|--7-----------------3-----------------4-----------------3----------------|
E|-------------------------------------------------------------------------|
The age     of        innocence    is   fading   like an  old     dream 

e|--------------------------------0--|
B|----------------------------3------|
G|------------------------0----------|
D|----------4---------4--------------|
A|------2-------2--------------------|
E|--0--------------------------------|





Comments


Popular Iron Maiden tabs & chords
Be Quick Or Be Dead Bass Tabs
Innocent Exile 3 Bass Tabs
Look For The Truth 3 Bass Tabs
Running Free Intro 1 Bass Tabs
Back In The Village Intro Tabs
Charlot The Harlot Tabs
Heaven Can Wait 1 Tabs
The Duelists Tabs
Xfactor Tabs
Fear Of The Dark Ukulele


Song lyrics



↑ Back to top | Tablatures and chords are parodies/interpretations of the original songs. You may use it for private study, scholarship, research or language learning purposes only
© 2014 AZChords.com Contact us | Privacy policy | DMCA | Add/correct tabs | Request tabs | Top 50 tabs