» » »

Iron Maiden, Afraid To Shoot Strangers Tabs (ver.3)

Artists:  A B C D E F G H I J K L M N O P Q R S T U V W X Y Z # 

Afraid To Shoot Strangers Tabs (ver.3)

Iron Maiden Tabs
Rating:
3/5 (1 vote)
Afraid To Shoot Strangers lessons Tabs too difficult? Try these video lessons and learn fast
                
Tuning:eBGDAE

This is one of the finest Maiden's song Ever. That's all I can say.

h - hammer on
p - pull off
/ - slide to
b - bend till

This goes first time and the second time you put this one to the end:
                                                                     
e|-----2-4-2---------5/7--5-3-2------------------------------------|-------|
B|-3/5-------5-4-2--------------5-3-2-----2-22-22-22---------------|-------|
G|-----------------5------------------4-2------------4-1/4-44-44-44|-1h4p1-|
D|-----------------------------------------------------------------|-------|
A|-----------------------------------------------------------------|-------|
E|-----------------------------------------------------------------|-------|

You can play this during whole intro.


Than goes the bass part and than goes this 4x:

e|------------------------7--------------------------------------------|
B|-----9-10-9--10----10-12-12-10-12---9-10-12--9-10-12-10-9-------9----|
G|---11------11----11----------------9--------9------------11-9-11-11--|
D|-11------------------------------------------------------------------|
A|---------------------------------------------------------------------|
E|---------------------------------------------------------------------|

than this for 4x: (3rd and 4th time he sings)

this is 1st time:

e|---------------------------------------------------------------|
B|--10-10-12-10-9-10--9-9-9-9-9------------9---------------------|
G|------------------11---------9-11-11-9-11-11-9-11--------------|
D|---------------------------------------------------------------|
A|---------------------------------------------------------------|
E|---------------------------------------------------------------|

and this is the other 3 times:

e|---------------------------------------------------------------|
B|-10-10-10-10-12-10-9-10--9-9-9-9-9------------9----------------|
G|-----------------------11---------9-11-11-9-11-11-9-11---------|
D|---------------------------------------------------------------|
A|---------------------------------------------------------------|
E|---------------------------------------------------------------|

I couldn't figure out the solo, but here is the part between two solos:

e|--------6-----------6-----6--------10b12-----------------------|
B|----7-9--9-7-----7-9-9-7-6-9-7-6-7-----------------------------|
G|--8-------------8----------------------------------------------|
D|---------------------------------------------------------------|
A|---------------------------------------------------------------|
E|---------------------------------------------------------------|

e|--------6-----------6-----6--------10b12-----------------------|
B|----7-9--9-7-----7-9-9-7-6-9-7-6-7-----------------------------|
G|--8-------------8----------------------------------------------|
D|---------------------------------------------------------------|
A|---------------------------------------------------------------|
E|---------------------------------------------------------------|


e|---------12-------------12--------12-----------16b18-----------|
B|----13-15--15-13---13-15--15-13-12--15-13-12-13----------------|
G|--14-------------14--------------------------------------------|
D|---------------------------------------------------------------|
A|---------------------------------------------------------------|
E|---------------------------------------------------------------|

e|--------6-----------6-----6--------10b12-----------------------|
B|----7-9--9-7-----7-9-9-7-6-9-7-6-7-----------------------------|
G|--8-------------8----------------------------------------------|
D|---------------------------------------------------------------|
A|---------------------------------------------------------------|
E|---------------------------------------------------------------|

than goes the 2nd solo and than this:


e|-------------9--10-9-----------------------------------------------|
B|-----9-10-12--------12-10-9-10--12-10-9-----------10-10-10p9-------|
G|-9*-11-----------------------------------9-9------------------9----|
D|---------------------------------------------11-12-----------------|
A|-------------------------------------------------------------------|
E|-------------------------------------------------------------------|


* this one is played only 1st time but the other three not.

than goes this:


this is 1st time:

e|---------------------------------------------------------------|
B|--10-10-12-10-9-10--9-9-9-9-9------------9---------------------|
G|------------------11---------9-11-11-9-11-11-9-11--------------|
D|---------------------------------------------------------------|
A|---------------------------------------------------------------|
E|---------------------------------------------------------------|

and this is the other 3 times:

e|---------------------------------------------------------------|
B|-10-10-10-10-12-10-9-10--9-9-9-9-9------------9----------------|
G|-----------------------11---------9-11-11-9-11-11-9-11---------|
D|---------------------------------------------------------------|
A|---------------------------------------------------------------|
E|---------------------------------------------------------------|

till the end.

Enyoy
            

comments powered by Disqus
↑ Back to top | Iron Maiden Tabs for Afraid To Shoot Strangers. Lyrics for acoustic guitar and electric guitar. Tablatures and chords are parodies/interpretations of the original songs. You may use it for private study, scholarship, research or language learning purposes only