» » »

Aces High Tabs (ver.10)

Artists:  A B C D E F G H I J K L M N O P Q R S T U V W X Y Z # 

Aces High Tabs (ver.10)

Iron Maiden
Rating:
5/5 (23 votes)

Hard to play? Try these video lessons and learn fast.
                Iron Maiden - Aces High
Intro 1
Guitar 1
-----------|-----------|
-----------|-----------|
---1---2-1-|---1-------|
-4---4-----|-4---4-2~~-|
-----------|-----------|
-----------|-----------|
Guitar 2
-------------|-------------|
----9---10-9-|----9--------|
-11---11-----|-11---11-9~~-|
-------------|-------------|
-------------|-------------|
-------------|-------------|

Intro 2
Guitar 1   (repeat 4 times)
-----------------------------------------------|
-------------1-1------------------1------------|
-2-0-2p0-2p0-----2--2-0p2-0p2-4-4---4p2p0------|
-----------------------------------------------|
-----------------------------------------------|
-----------------------------------------------|

Guitar 2
------------------------------------------------|
--------------5-5-----------------------5-------|
-5--4-5-4-5-4-----5--5--4-5-4-5-4-7-7-7---7-5-4-|
------------------------------------------------|
------------------------------------------------|
------------------------------------------------|

Verse Riff A
Guitars 1 & 2 (repeat twice)
------------------------------------------------|
------------------------------------------------|
-4---6---7---9---7---6---4---7---6---2---6---2--|
-2---4---5---7---5---4---2---5---4---0---4---0--|
------------------------------------------------|
------------------------------------------------|

------------------------------------------|
------------------------------------------|
-4---6---7---9---7---6---4---7---6---2----|
-2---4---5---7---5---4---2---5---4---0----|
------------------------------------------|
------------------------------------------|
Verse Riff B
Guitars 1 & 2 (repeat twice)  
------------------------------------------------|
------------------------------------------------|
------------------------------------------------|
-2---4---5---7---5---4---2---5---4-------4------|
-0---2---3---5---3---2---0---3---2---5---2---5--|
-------------------------------------3-------3--|






------------------------------------------------|
------------------------------------------------|
------------------------------------------------|
-2---4---5---7---5---4---2---5---4--------------|
-0---2---3---5---3---2---0---3---2---5----------|
-------------------------------------3----------|


Pre Chorus (repeat twice)
-------------------|-------------------|
-------------------|-------------------|
-------------------|-------------------|
-------------------|-------------------|
--5-7-7-7-7-7-7-7--|--5-7-7-7-7-7-7-7--|
-------------------|-------------------|

-------------------|-------------------|
-------------------|--5-4--------------|
-------------------|------7-5-7-5-4----|
--5-7-7-7-7-7-7-7--|----------------5--|
-------------------|-------------------|

-------------------|-------------------|
-------------------|-------------------|
-------------------|-------------------|
-------------------|-------------------|
--5-7-7-7-7-7-7-7--|--5-7-7-7-7-7-7-7--|
-------------------|-------------------|

-------------------|-------------------|
-------------------|-------------------|
-------------------|--5-4--------------|
-------------------|------7-5-7--------|
--5-7-7-7-7-7-7-7--|-------------------|
-------------------|-------------------|

Chorus Riff C (Repeat 3 times)
------------|--------------|
------------|--------------|
------------|--------------|
--2---------|--5-----7-----|
--2---------|--3-----5-----|
--0---------|--------------|

Riff D 
------------|--------------|
------------|--------------|
------------|--------------|
--2---------|--------7-----|
--2---------|--5-----5-----|
--0---------|--3-----------|

Riff F (repeat 4 times)
------------|--------------|
------------|--------------|
------------|--------------|
--5---------|--8-----10----|
--5---------|--6-----8-----|
--3---------|--------------|


Riff E   
(Play on 3rd time of riff D)
----15-\---|
-15-----\--|
---------\-|
-----------|
-----------|
-----------|
    w/bar

Bridge (repeat twice)
-----------------------------|
-----------------------------|
-----------------------------|
-----------------------7--7--|
--0--3-3--0-0--3-2-0-0-5--5--|
-----------------------------|

-----------------------------|
-----------------------------|
-----------------------------|
-----------------------2--2--|
--0--3-3--0-0--3-2-0---0--0--|
---------------------3-------|

-----------------------------|
-----------------------------|
-----------------------------|
-----------------------7--7--|
--0--3-3--0-0--3-2-0-0-5--5--|
-----------------------------|

-----------------------------|
-----------------------------|
-----------------------------|
-----------------------2-----|
--0--3-3--0-0--3-2-0---0-----|
---------------------3-------|

Solo Rhythm
Riff G (repeat twice)
---------------|---------------|
---------------|---------------|
---------------|---------------|
---------------|--------5---7--|
--7-----3---5--|--7-----3---5--|
--5-----1---3--|--5------------|

Riff H (repeat twice)
---------------|---------------|
---------------|---------------|
---------------|---------------|
--4------------|--4-----7---9--|
--2-----5---7--|--2-----5---7--|
--------3---5--|---------------|







Solo 1 (Dave Murray)
----------------------|-----------------------------------------------|
------------5-8-8b(10)|-----------------------------------------------|          
-7b(9)(9)(9)----------|--12-9----9------------------------------------|
----------------------|-------12---12-10-12-10----10------------------|
----------------------|------------------------12----12-10-12-10------|
----------------------|------------------------------------------12—--|

--8-0-7-0-8-0-5-0-8-0-7-0-8-0-5-0-7-0-5-0-8-0-5-0-7-0-5-0--------|
----------------------------------------------------------8-10---|
-----------------------------------------------------------------|
-----------------------------------------------------------------|
-----------------------------------------------------------------|
-----------------------------------------------------------------|

-----------------------------------------|
----------------------------5-6-5-8b(10)-|
--------------4-5-4---4-5-7--------------|
--5-7-5---5-7-------7--------------------|
--------7--------------------------------|
-----------------------------------------|

Solo 2 (Adrian Smith)
------------------------------------------------------------------|
-15-12-0-15-14-0-15-12-0-15-14-0-15-12-0-15-14-0-15-12-0-15-14-0--|
------------------------------------------------------------------|
------------------------------------------------------------------|
------------------------------------------------------------------|
------------------------------------------------------------------|

--------------------------------|
--12-10-8-10-8-7-8-7-5-7-8-7----|
-----------------------------7--|
--------------------------------|
--------------------------------|
--------------------------------|

----------------------------------------------|
------7-10-9-7---9-7--------------------------|
----7----------9-----9-10-9-7---9-7-----------|
--9---------------------------9-----9-7-------|
----------------------------------------9-----|
------------------------------------------10--|


------------------------------------------17b(19)-|
---------------------------15-17-17-17-15---------|
--11-10-9-7-------------16------------------------|
------------9-8-7---------------------------------|
------------------9-8-7---------------------------|
--------------------------------------------------|

Bridge (repeat twice)
Verse Riff A (repeat twice)
Verse Riff B (repeat twice)
Pre Chorus   (repeat twice)
Chorus          
Intro 2      (repeat 4 times)




Outro
---------------------|---------------------------------|
---------------------|-----------------5---------------|
---------------------|--4--7--7--7--7-----7--5--4p5p4--|
--7---5--7--5--7--5--|---------------------------------|
---------------------|---------------------------------|
---------------------|---------------------------------|

---------------------------------------------|
--8---5p6p5-----5--6--5----------------------|
-------------7-----------4--5-------------2--|
------------------------------------------2--|
------------------------------------------0--|
---------------------------------------------|
            
Hard to play? Try these video lessons and learn fast. | Correct




comments powered by Disqus
↑ Back to top | Tablatures and chords are parodies/interpretations of the original songs. You may use it for private study, scholarship, research or language learning purposes only