» » »

Iron Maiden, Aces High Tabs (ver.9)

Artists:  A B C D E F G H I J K L M N O P Q R S T U V W X Y Z # 

Aces High Tabs (ver.9)

Iron Maiden Tabs
 Rating:
4.6/5 (11 votes)
Aces High lessons Tabs too difficult? Try these video lessons and learn fast
                

Intro:
E----------------|
B----------------|
G----------------|
D----4-6-4-7--6--|
A--7-------------|
E----------------|

End of Intro:
E----------------|
B----------------|
G----------------|
D--4----6--4-----|
A----7--------7--|
E----------------|


E------------------------|
B---------------5--5-----|
G--5--4-5-4-5-4-------5--|
D------------------------|
A------------------------|
E------------------------|

E------------------------------|
B---------------------5--------|
G--5--4-5-4-5-4-7--7----7-5-4--|
D------------------------------|
A------------------------------|
E------------------------------|

E-------------------------------------------------|
B-------------------------------------------------|
G--4---6---7---9---7---6---4---7---6---2---6---2--|
D--2---4---5---7---5---4---2---5---4---0---4---0--|
A-------------------------------------------------|
E-------------------------------------------------|

E-------------------------------------------|
B-------------------------------------------|
G--4---6---7---9---7---6---4---7---6---2----|
D--2---4---5---7---5---4---2---5---4---0----|
A-------------------------------------------|
E-------------------------------------------|


E-------------------------------------------------|
B-------------------------------------------------|
G-------------------------------------------------|
D--2---4---5---7---5---4---2---5---4-------4------|
A--0---2---3---5---3---2---0---3---2---5---2---5--|
E--------------------------------------3-------3--|

E-------------------------------------------------|
B-------------------------------------------------|
G-------------------------------------------------|
D--2---4---5---7---5---4---2---5---4--------------|
A--0---2---3---5---3---2---0---3---2---5----------|
E--------------------------------------3----------|

E-------------------|-------------------|
B-------------------|-------------------|
G-------------------|-------------------|
D-------------------|-------------------|
A--5-7-7-7-7-7-7-7--|--5-7-7-7-7-7-7-7--|
E-------------------|-------------------|

E-------------------|-------------------|
B-------------------|-------------------|
G-------------------|--5-4--------------|
D-------------------|------7-5-7-5-4----|
A--5-7-7-7-7-7-7-7--|----------------5--|
E-------------------|-------------------|

E-------------------|-------------------|
B-------------------|-------------------|
G-------------------|-------------------|
D-------------------|-------------------|
A--5-7-7-7-7-7-7-7--|--5-7-7-7-7-7-7-7--|
E-------------------|-------------------|

E-------------------|-------------------|
B-------------------|-------------------|
G-------------------|--5-4--------------|
D-------------------|------7-5-7--------|
A--5-7-7-7-7-7-7-7--|-------------------|
E-------------------|-------------------|



E------------|--------------|
B------------|--------------|
G------------|--------------|
D--2---------|--5-----7-----|
A--2---------|--3-----5-----|
E--0---------|--------------|

E------------|--------------|
B------------|--------------|
G------------|--------------|
D--2---------|--5-----7-----|
A--2---------|--3-----5-----|
E--0---------|--------------|

E------------|--------------|
B------------|--------------|
G------------|--------------|
D--2---------|--5-----7-----|
A--2---------|--3-----5-----|
E--0---------|--------------|

E------------|--------------|
B------------|--------------|
G------------|--------------|
D--2---------|--------7-----|
A--2---------|--5-----5-----|
E--0---------|--3-----------|

E------------|--------------|
B------------|--------------|
G------------|--------------|
D--5---------|--8-----10----|
A--5---------|--6-----8-----|
E--3---------|--------------|

E------------|--------------|
B------------|--------------|
G------------|--------------|
D--5---------|--8-----10----|
A--5---------|--6-----8-----|
E--3---------|--------------|

E------------|--------------|
B------------|--------------|
G------------|--------------|
D--5---------|--8-----10----|
A--5---------|--6-----8-----|
E--3---------|--------------|

E------------|--------------|
B------------|--------------|
G------------|--------------|
D--5---------|--8-----10----|
A--5---------|--6-----8-----|
E--3---------|--------------|



E-----------------------------|
B-----------------------------|
G-----------------------------|
D-----------------------7--7--|
A--0--3-3--0-0--3-2-0-0-5--5--|
E-----------------------------|

E-----------------------------|
B-----------------------------|
G-----------------------------|
D-----------------------2--2--|
A--0--3-3--0-0--3-2-0---0--0--|
E---------------------3-------|

E-----------------------------|
B-----------------------------|
G-----------------------------|
D-----------------------7--7--|
A--0--3-3--0-0--3-2-0-0-5--5--|
E-----------------------------|

E----------------------------|
B----------------------------|
G----------------------------|
D-----------------------2----|
A--0--3-3--0-0--3-2-0---0----|
E---------------------3------|



During solo:
E---------------|---------------|
B---------------|---------------|
G---------------|---------------|
D---------------|--------5---7--|
A--7-----3---5--|--7-----3---5--|
E--5-----1---3--|--5------------|


E---------------|---------------|
B---------------|---------------|
G---------------|---------------|
D--4------------|--4-----7---9--|
A--2-----5---7--|--2-----5---7--|
E--------3---5--|---------------|

Outro:
E---------------------|---------------------------------|
B---------------------|-----------------5---------------|
G---------------------|--4--7--7--7--7-----7--5--4p5p4--|
D--7---5--7--5--7--5--|---------------------------------|
A---------------------|---------------------------------|
E---------------------|---------------------------------|

E---------------------------------------------|
B--8---5p6p5-----5--6--5----------------------|
G-------------7-----------4--5-------------2--|
D------------------------------------------2--|
A------------------------------------------0--|
E---------------------------------------------|


Enjoy!
            
Submit corrections

comments powered by Disqus
↑ Back to top | Iron Maiden Tabs for Aces High. Lyrics for acoustic guitar and electric guitar. Tablatures and chords are parodies/interpretations of the original songs. You may use it for private study, scholarship, research or language learning purposes only