» » »

Aces High Tabs (ver.8)

Artists:  A B C D E F G H I J K L M N O P Q R S T U V W X Y Z # 

Aces High Tabs (ver.8)

Iron Maiden
Rating:
3/5 (3 votes)

Hard to play? Try these video lessons and learn fast.
                aces high by marcos

intro (riff a)

guitar 1 (repeat x3)
e------------------------------------------------|
b------------------------------------------------|
g-----1---2-1-----1---2-1----2-1-2-1-----1---2-1-|
d-2-4--2------2-4--2------2-4--------2-4--2------|
a------------------------------------------------|
E------------------------------------------------|

guitar 2 (repeat x3)
e------------------------------------------------|
b------------------------------------------------|
g-----4---6-4-----4---6-4----6-4-6-4-----4---6-4-|
d-6-7--6------6-7--6------6-7--------6-7--6------|
a------------------------------------------------|
E------------------------------------------------|

guitar 1
e------------------------------------------------|
b------------------------------------------------|
g-----1---2-1-----1---2-1----2-1-2-1-------------|
d-2-4--2------2-4--2------2-4--------2-4-4h6p4-2-|
a------------------------------------------------|
E------------------------------------------------|

guitar 2
e------------------------------------------------|
b------------------------------------------------|
g-----4---6-4-----4---6-4----6-4-6-4-------------|
d-6-7--6------6-7--6------6-7--------6-7-7h9p7-6-|
a------------------------------------------------|
E------------------------------------------------|

end of intro

(riff b)
guitar 1  (repeat x4)
e-----------------------------------------------|
b-------------1-1------------------1------------|
g-2-0-2p0-2p0-----2--2-0p2-0p2-4-4---4p2p0------|
d-----------------------------------------------|
a-----------------------------------------------|
E-----------------------------------------------|
guitar 2
e-----------------------------------------------|
b-------------5-5------------------5------------|
g-5-4-5p4-5p4-----5--5-4p5-4p5-7-7---7p5p4------|
d-----------------------------------------------|
a-----------------------------------------------|
E-----------------------------------------------|

verse 1

(riff c) x 2
guitar 1,2
e---------------------------------------------------------|
b---------------------------------------------------------|
g---------------------------------------------------------|
d-9-11-12-14-12-11-7-12-11-7-11---9-10-12-14-12-11-9-12-7-|
a-7--9-10-12-10--9-5-10--9-5--9---7--9-10-12-10--9-7-10-5-|
E---------------------------------------------------------|
(riff d) x 2
guitar 1,2
e----------------------------------------------|
b----------------------------------------------|
g----------------------------------------------|
d-2-4-5-7-5-4-2-5-4---4----2-4-5-7-5-4-2-5-4---|
a-0-2-3-5-3-2-0-3-2-5-2-5--0-2-3-5-3-2-0-3-2-5-|
E-------------------3---3--------------------3-|

(riff e) x 2
guitar1,2
e------------------------------------------------|
b------------------------------------------------|
g-----------0---------2---------0-5-4-----4------|
d-0-2-2-2-2---2-2-2-2---2-2-2-2------7-5---7-5-4-|
a------------------------------------------------|
E------------------------------------------------|

e-----------------------------------------------|
b-----------------------------------------------|
g-----------0---------2---------0-5-4-----------|
d-0-2-2-2-2---2-2-2-2---2-2-2-2-------7-5-7-----|
a-----------------------------------------------|
E-----------------------------------------------|

(riff f) x 1
e-----------------------------------------------|
b-----------------------------------------------|
g-----------------------------------------------|
d-9-5-7-9-5-7-9-5-7-9-5-7-12--------------------|
a-7-3-5-7-3-5-7-3-5-7-3-5-10--------------------|
E-----------------------------------------------|

e-----------------------------------------------|
b-----------------------------------------------|
g-----------------------------------------------|
d-8-10-12--8-10-12--8-10-12--8-10---------------|
a-6--8-10--6--8-10--6--8-10--6--8---------------|
E-----------------------------------------------|

(riff g)x 2
e-----------------------------------------------|
b-----------------------------------------------|
g-----------------------------------------------|
d-----------------------------------------------|
a-0-3-3-0-0-3p2p0---5-5--0-3-3-0-0-3p2p0---0-0--|
E-----------------3----------------------3------|

e-----------------------------------------------|
b-----------------------------------------------|
g-----------------------------------------------|
d-----------------------------------------------|
a-0-3-3-0-0-3p2p0---5-5--0-3-3-0-0-3p2p0---0----|
E-----------------3----------------------3------|
            
Hard to play? Try these video lessons and learn fast. | Correct




comments powered by Disqus
↑ Back to top | Tablatures and chords are parodies/interpretations of the original songs. You may use it for private study, scholarship, research or language learning purposes only