» » »

Iron Maiden, 22 Acacia Avenue Tabs (ver.2)

Artists:  A B C D E F G H I J K L M N O P Q R S T U V W X Y Z # 

22 Acacia Avenue Tabs (ver.2)

Iron Maiden Tabs
 Rating:
4/5 (4 votes)
22 Acacia Avenue lessons Tabs too difficult? Try these video lessons and learn fast
                Intro Riff
-------------------|
-------------------|
--9----------------|
--9-9-9-9-9-9-9-9--|
--7-7-7-7-7-7-7-7--|
--0-0-0-0-0-0-0-0--|

-------|
-------|
--7-9--|
--7-9--|
--5-7--|
-------|

-----------------------------------|
-----------------------------------|
-----------------------------------|
--9-9-9-9-9-9-9-9-7-7-7-7-7-7-7-7--|
--7-7-7-7-7-7-7-7-5-5-5-5-5-5-5-5--|
--0-0-0-0-0-0-0-0------------------|

-------|
-------|
--7-7--|
--7-7--|
--5-5--|
-------|

-----------------------------------|
-----------------------------------|
-----------------------------------|
--9-9-9-9-9-9-9-9-7-7-7-7-7-7-7-7--|
--7-7-7-7-7-7-7-7-5-5-5-5-5-5-5-5--|
--0-0-0-0-0-0-0-0------------------|

-------|
-------|
--7-7--|
--7-7--|
--5-5--|
-------|

-----------------------------------|
-----------------------------------|
-----------------------------------|
--5-5-5-5-5-5-5-5-9-9-9-9-9-9-9-9--|
--3-3-3-3-3-3-3-3-7-7-7-7-7-7-7-7--|
------------------0-0-0-0-0-0-0-0--|

Verse 1
-----------|                            repeat this verse 4x but on
-----------|                            the last dont play the E go
--9-8-7-5--|                            back to the Intro Riff
--9-8-7-5--|
--7-6-5-3--|
-----------|

-----------------------------------|
-----------------------------------|
--5-5-5-5-7-7-7-7-9-9-9-9-9-9-9-9--|
--5-5-5-5-7-7-7-7-9-9-9-9-9-9-9-9--|
--3-3-3-3-5-5-5-5-7-7-7-7-7-7-7-7--|
-----------------------------------|

Intro Riff
-------------------|
-------------------|
--9----------------|
--9-9-9-9-9-9-9-9--|
--7-7-7-7-7-7-7-7--|
--0-0-0-0-0-0-0-0--|

-------|
-------|
--7-9--|
--7-9--|
--5-7--|
-------|

-----------------------------------|
-----------------------------------|
-----------------------------------|
--9-9-9-9-9-9-9-9-7-7-7-7-7-7-7-7--|
--7-7-7-7-7-7-7-7-5-5-5-5-5-5-5-5--|
--0-0-0-0-0-0-0-0------------------|

-------|
-------|
--7-7--|
--7-7--|
--5-5--|
-------|

-----------------------------------|
-----------------------------------|
-----------------------------------|
--9-9-9-9-9-9-9-9-7-7-7-7-7-7-7-7--|
--7-7-7-7-7-7-7-7-5-5-5-5-5-5-5-5--|
--0-0-0-0-0-0-0-0------------------|

-------|
-------|
--7-7--|
--7-7--|
--5-5--|
-------|

-----------------------------------|
-----------------------------------|
-----------------------------------|
--5-5-5-5-5-5-5-5-9-9-9-9-9-9-9-9--|
--3-3-3-3-3-3-3-3-7-7-7-7-7-7-7-7--|
------------------0-0-0-0-0-0-0-0--|

Verse 2
-----------|                            play 4x and on the last let
-----------|                            the E ring
--9-8-7-5--|
--9-8-7-5--|
--7-6-5-3--|
-----------|

-----------------------------------|
-----------------------------------|
--5-5-5-5-7-7-7-7-9-9-9-9-9-9-9-9--|
--5-5-5-5-7-7-7-7-9-9-9-9-9-9-9-9--|
--3-3-3-3-5-5-5-5-7-7-7-7-7-7-7-7--|
-----------------------------------|

Break
-------------------------------------------------------|
-------------------------------------------------------|
-------------------------------------------------------|
---------------------5---------------7-7-7----5--------|
---------5--7-----------------5--7---------------7--5--|
--0-0-0--------0-0-0---0-0-0---------------------------|

Verse 3
I dont think this is how it's played but it sounds ok
---------------------------------|
---------------------------------|
---------------------------------|
-------------5----------5-7-5----|  x2
--7-7-5-7-7----7-7-5-7--------7--|
---------------------------------|

-------------------|
-------------------|
-------------------|
------5-5-4-4-5-5--|  x2
--3-3--------------|
-------------------|

---------------------------------|
---------------------------------|
---------------------------------|
-------------5----------5-7-5----|  x3
--7-7-5-7-7----7-7-5-7--------7--|
---------------------------------|

-------------------|
-------------------|
-------------------|
------5-5-4-4-5-5--|  x2
--3-3--------------|
-------------------|

---------------------------------|
---------------------------------|
---------------------------------|
-------------5----------5-7-5----|  x1
--7-7-5-7-7----7-7-5-7--------7--|
---------------------------------|

Chorus
----------------------------------------------------|
----------------------------------------------------|
--5-------7-------4-------5-------5-------7---------|
--5-------7-------4-------5-------5-------7----7-9--|  x2
--3-------5-------2-------3-------3-------5----5-7--|
----------------------------------------------------|

Verse 4
---------------------------------|
---------------------------------|
---------------------------------|
-------------5----------5-7-5----|  x2
--7-7-5-7-7----7-7-5-7--------7--|
---------------------------------|

-------------------|
-------------------|
-------------------|
------5-5-4-4-5-5--|  x2
--3-3--------------|
-------------------|

---------------------------------|
---------------------------------|
---------------------------------|
-------------5----------5-7-5----|  x3
--7-7-5-7-7----7-7-5-7--------7--|
---------------------------------|

-------------------|
-------------------|
-------------------|
------5-5-4-4-5-5--|  x2
--3-3--------------|
-------------------|

---------------------------------|
---------------------------------|
---------------------------------|
-------------5----------5-7-5----|  x1
--7-7-5-7-7----7-7-5-7--------7--|
---------------------------------|

Chorus
----------------------------------------------------|
----------------------------------------------------|
--5-------7-------4-------5-------5-------7---------|
--5-------7-------4-------5-------5-------7----7-9--|  x2
--3-------5-------2-------3-------3-------5----5-7--|
----------------------------------------------------|

Break 2
---------------------------------|
---------------------------------|
---------------------------------|
--7-9---7-9---7-9---12-11-12-12--|  x4
--5-7---5-7---5-7---10-9--10-9---|
---------------------------------|

Rhythm for solo 1
-------------------------|
-------------------------|
--9-------7-------5---7--|
--9-------7-------5---7--|  x4
--7-------5-------3---5--|
-------------------------|

Verse 5
---------------------------------|
---------------------------------|
---------------------------------|
-------------5----------5-7-5----|  x16
--7-7-5-7-7----7-7-5-7--------7--|
---------------------------------|

Rhythm for solo 2
---------------------------------|
---------------------------------|
---------------------------------|
-------------5----------5-7-5----|
--7-7-5-7-7----7-7-5-7--------7--|
---------------------------------|

After Solo
-----------------------------|
-----------------------------|
--9-------7-------5---7---9--|
--9-------7-------5---7---9--|
--7-------5-------3---5---7--|
-----------------------------|

Ending
-------|
-------|
-------|
--7-9--|
--5-7--|
-------|
            
Submit corrections

comments powered by Disqus
↑ Back to top | Iron Maiden Tabs for 22 Acacia Avenue. Lyrics for acoustic guitar and electric guitar. Tablatures and chords are parodies/interpretations of the original songs. You may use it for private study, scholarship, research or language learning purposes only