» » »

Iron And Wine, Carousel Tabs (ver.1)

Artists:  A B C D E F G H I J K L M N O P Q R S T U V W X Y Z # 

Carousel Tabs (ver.1)

Iron And Wine Tabs
 Rating:
4.7/5 (12 votes)
Carousel lessons Tabs too difficult? Try these video lessons and learn fast
                Tuning: Standard
Capo:   3rd fred

e|--------------------------------------0-----------------------0--------0------------|
B|---5------------3------------1--------------------3--3-----------1------------------|
G|------0------------0------------2-----------2-----------0--------------------2------|
D|---------7-/-4--------4-/-2--------2-----------2-----------4--------2------------2--|
A|---0------------0------------0-----------0--------0--0-----------0--------0---------|
E|------------------------------------------------------------------------------------|

e|---------------0--------0------------|
B|---3--3-----------1------------------|
G|---------0--------------------2------|
D|------------4--------2------------2--|
A|---0--0-----------0--------0---------|
E|-------------------------------------|

e|------------------------------------------------|
B|---1--------1-----------1-----------------------|
G|------0-----------0-----------0-----0-----0-----|
D|---------2-----------0-----------------------0--|  2x then back to top
A|---3-----------2-----------------0-----2--------|
E|---------------------------3--------------------|

the middle is just this repeating a ton of times:

e|--------------------------------------------|
B|--------0-----------------------------------|
G|---0----------------0-----------0-----------|
D|--------------0-----------0-----------0-----|
A|------3----------3-----------3-----------3--|
E|---1-------1-----------1-----------1--------|

e|--------------------------------------------|
B|--------0-----------------------------------|
G|---0----------------0-----------0-----------|
D|--------------0-----------0-----------0-----|
A|------5----------5-----------5-----------5--|
E|---3-------3-----------3-----------3--------|
            
Submit corrections

comments powered by Disqus
↑ Back to top | Iron And Wine Tabs for Carousel. Lyrics for acoustic guitar and electric guitar. Tablatures and chords are parodies/interpretations of the original songs. You may use it for private study, scholarship, research or language learning purposes only