» » »

What A Feeling Tabs (ver.1)

Artists:  A B C D E F G H I J K L M N O P Q R S T U V W X Y Z # 

What A Feeling Tabs (ver.1)

Irene Cara
Rating:
5/5 (1 vote)

Tabs too difficult? Try these video lessons and learn fast.
                hey guys

this is my first tab. i think it is pretty good. your opinion.

E--------------------------------------------------------------------------|
B--------------------------------------------------------------------------|
G---------------------------------------0----------------------------------|
D--0---------------0-1---0-0-0--------------3-1-3---1-3-1-0----------------|
A------3-1-3-3---3-------------3-1--3-1---------------------3--1-3---------|
E--------------------------------------------------------------------------|


E--------------------------------------------------------------------------|
B--------------------------------------------------------------------------|
G--------------------------------------0-----------------------------------|
D-----0-----------0-1--0-0-0---------------3-1-3---1-3-1-0-----------------|
A-1-3----3-1-3--3------------3-1---3-1---------------------3---------------|
E--------------------------------------------------------------------------|


E--------------------------------------------------------------------------|
B--------------------------------------------------------------------------|
G------------------------------------------0--3-0--------------------------|
D-----0--------------0-1---0---0------------------3--1-0-1-0---------------|
A-1-3-----3-1-3-0--3---------3---3-1---3-1-------------------3-------------|
E--------------------------------------------------------------------------|

Chorus:
E--------------------------------------------------------------------------|
B---------------------------1----------------------------1---------1-------|
G-----2-3-3--3s2-2-2-0----2---3s0--3s2-2-2-2s0-----2-3-3---3-2-3-3---------|
D---3-------------------3------------------------3-------------------3-3-3-|
A--------------------------------------------------------------------------|
E--------------------------------------------------------------------------|

it keeps going like that. you could figure out the rest. find out the solo if you could. have fun!!
            
Tabs too difficult? Try these video lessons and learn fast.




comments powered by Disqus
↑ Back to top | Tablatures and chords are parodies/interpretations of the original songs. You may use it for private study, scholarship, research or language learning purposes only