» » »

Fame Bass tabs (ver.1)

Artists:  A B C D E F G H I J K L M N O P Q R S T U V W X Y Z # 

Fame Bass tabs (ver.1)

Irene Cara
Rating:
0/5 (0 votes)

Hard to play? Try these video lessons and learn fast.
                hi guys,




G|-----------------------------------------------------------|
D|------------------------------0-0-0-0-0-0-0-0-----------0--|
A|-----------------------0-0-0-0---------------0-0-0-0-3-3---|
E|0-0-0-0-2-2-2-2-3-3-3-3----------------------------------5-|

G|-------------------------------------------------------------|
D|------------------------------0-0-0-0-0-0-0-0----------------|
A|-----------------------0-0-0-0---------------3-3-3-3-2-2-2-2-|
E|0-0-0-0-2-2-2-2-3-3-3-3--------------------------------------|

G|-----------------------------|
D|--------------0-0-0-0--------|
A|-------0-0-0-0-------2-2-2-2-|
E|0-0-0-0----------------------|

G|-----------------------------|
D|--------------0-0-0-0--------|
A|-------0-0-0-0-------2-2-2-2-|
E|0-0-0-0----------------------|

G|-----------------------------|
D|--------------0-0-0-0--------|
A|-------0-0-0-0-------2-2-2-2-|
E|0-0-0-0----------------------|

G|-----------------------------|
D|--------------0-0-0-0--------|
A|-------0-0-0-0-------2-2-2-2-|
E|0-0-0-0----------------------|

G|---------------------------------------------------------------------|
D|---------------------------------------------------------------------|
A|---------------------------------------------------------------------|
E|0-0-0----0-0-0----0-0-0----0-0-0----0-0-0----0-0-0----0-0-0----0-0-0-|

G|-----------------------------------------------------------|
D|------------------------------0-0-0-0-0-0-0-0-----------0--|
A|-----------------------0-0-0-0---------------0-0-0-0-3-3---|
E|0-0-0-0-2-2-2-2-3-3-3-3----------------------------------5-|

G|-------------------------------------------------------------|
D|------------------------------0-0-0-0-0-0-0-0----------------|
A|-----------------------0-0-0-0---------------3-3-3-3-2-2-2-2-|
E|0-0-0-0-2-2-2-2-3-3-3-3--------------------------------------|

G|-----------------------------|
D|--------------0-0-0-0--------|
A|-------0-0-0-0-------2-2-2-2-|
E|0-0-0-0----------------------|

G|-----------------------------|
D|--------------0-0-0-0--------|
A|-------0-0-0-0-------2-2-2-2-|
E|0-0-0-0----------------------|

G|-----------------------------|
D|--------------0-0-0-0--------|
A|-------0-0-0-0-------2-2-2-2-|
E|0-0-0-0----------------------|

G|-----------------------------|
D|--------------0-0-0-0--------|
A|-------0-0-0-0-------2-2-2-2-|
E|0-0-0-0----------------------|

G|---------------------------------------------------------------------|
D|---------------------------------------------------------------------|
A|---------------------------------------------------------------------|
E|0-0-0----0-0-0----0-0-0----0-0-0----0-0-0----0-0-0----0-0-0----0-0-0-|
            
Hard to play? Try these video lessons and learn fast. | Correct




comments powered by Disqus
↑ Back to top | Tablatures and chords are parodies/interpretations of the original songs. You may use it for private study, scholarship, research or language learning purposes only